Misfits - This Island Earth Chords & Tabs

 

This Island Earth Chords & Tabs

Misfits Chords & Tabs

Version: 2 Type: Bass Tab 0 ratings
1 star 2 stars 3 stars 4 stars 5 stars
comments

This Island Earth Bass Tab

This Island Earth - Misfits
tabbed by: ryan b

Riff A: (once)
Ab--2--22-22-22-----------------------------------------
Eb---------------2--22-22-22--4--44-44-44--2--22-22-22--

Riff B: (once)
Ab--2--22-22-22--1--11-11-11-----------------------------------------
Eb----------------------------2-22-22-22-22222222-44444444-44444444--

Riff C: (once)
Ab--2--22-22-22--1--11-11-11----------------------------
Eb----------------------------4--44-44-44--2--22-22-22--

Riff D: (once)
Ab--2--22-22-22--1--11-11-11--4--44-44-44-44444444--
Eb--------------------------------------------------

Riff C: (once)
Riff D: (once)
[ Tab from: http://www.guitartabs.cc/tabs/m/misfits/this_island_earth_btab_ver_2.html ]
Riff E: (3 times)
Ab--2--22-22-22--3--33-33-33--4--44-44-44--4--44-4-3--
Eb----------------------------------------------------

Riff F: (once)
Ab--2--22-22-22--3--33-33-33--4--44-44-44--4--44-44-44--
Eb------------------------------------------------------

Riff G: (once)
Ab--------------------44444444------------
Eb--22222222-44444444-----------22222222--

Riff H: (once)
Ab--------------------44444444--
Eb--22222222-44444444-----------

Riff C: (once)
Riff D: (once)
Riff C: (once)
Riff D: (once)
Riff E: (3 times)
Riff F: (once)
Riff G: (once)
Riff H: (once)

Riff I: (3 times)
Ab--44444444----------------------44444444--
Eb------------22222222--44444444------------

Riff J: (once)
Ab--44444444----------------------4------4--
Eb------------22222222--44444444------------

Comments