Misfits - The Hunger Chords & Tabs

 

The Hunger Chords & Tabs

Misfits Chords & Tabs

Version: 1 Type: Tab 0 ratings
1 star 2 stars 3 stars 4 stars 5 stars
comments

The Hunger Tab

Band: Misfits
Song: The Hunger

Tabber: John Cukras
email: riffreaper@yahoo.com

Tuning: normal

Intro: Lightly put finger on low e on slide
E----------------------|
B----------------------|
G----------------------|
D----------------------|
A-22222222222----------|
E--------------6/5/4/3-|
pm...........  .......

Riff 1:
E--------------------|
B--------------------|
G--------------------|
D-2---2--------------|
A-2-5-2-8-7-5--------|
E-0-3-0-6-5-3  x's 4-|
[ Tab from: http://www.guitartabs.cc/tabs/m/misfits/the_hunger_tab.html ]
Riff 2:
E-------------------------------------------------|
B-------------------------------------------------|
G-------------------------------------------------|
D-------88888-----44444444444--------222222-------|
A-66666-66666-----22222222222-555555-222222-------|
E-44444-----------------------333333-000000 x's 3-|

Riff 3:
E-----------------------------|
B-----------------------------|
G-----------------------------|
D---4-------------------------|
A-7-2-7-5-5/14--5--7-5-4------|
E-5---5-3-3/12--3--5-3-2--5/1-|

Riff 1 x's 4

Riff 2 x's 3

Riff 3

Riff 1 x's 4

Riff 4:
E----------------------|
B----------------------|
G----------------------|
D-22---2---------------|
A-22-5-2-----7-5-------|
E-00-3-0--00-5-3 x's 3-|
pm..      ..

Outro:
E------------|
B------------|
G------------|
D----------2-|
A-5--8--7--2-|
E-3--6--5--0-|
Comments