Misfits - The Hunger Chords & Tabs

 

The Hunger Chords & Tabs

Misfits Chords & Tabs

Version: 2 Type: Bass Tab 0 ratings
1 star 2 stars 3 stars 4 stars 5 stars
comments

The Hunger Bass Tab

The Hunger - Misfits
tabbed by: ryan b

Riff A: (once)
Ab--22222222-22222222-22222222-22222222--
Eb---------------------------------------

Riff B: (3 times)
Ab------------1-0----
Eb--0--0-3-0------3--

Riff C: (once)
Ab------------1-0------------------------
Eb--0--0-3-0-------3--00000000-00000000--
[ Tab from: http://www.guitartabs.cc/tabs/m/misfits/the_hunger_btab_ver_2.html ]
Riff D: (3 times)
Ab--22222222-22222222--------------------
Eb--------------------33333333-00000000--

Riff E: (once)
Ab--00000000-0-0-2-0---------------------
Eb--------------------33333333-33333333--

Riff F: (once)
Ab--00000000-0000------------------------
Eb----------------3-2-22222222-2222-3-2--

Riff B: (3 times)
Riff C: (once)
Riff D: (3 times)
Riff E: (once)
Riff F: (once)
Riff B: (7 times)

Riff G: (once)
Ab------------1-0-------------------------
Eb--0--0-3-0-------3-------------------3--

Comments