Misfits - The Haunting Chords & Tabs

 

The Haunting Chords & Tabs

Misfits Chords & Tabs

Version: 2 Type: Bass Tab 0 ratings
1 star 2 stars 3 stars 4 stars 5 stars
comments

The Haunting Bass Tab

The Haunting - Misfits
tabbed by: ryan b

Riff A: (once)
Ab--55555555-55555555-55555555-00000000--
Eb---------------------------------------

Riff B: (twice)
Ab--55555555-00000000-22222222-----------
Eb-----------------------------33333333--

Riff C: (once)
Ab--22222222----------22222222-----------
Eb-----------33333333----------33333333--

Riff D: (once)
Ab--22222222-----------------------------
Eb-----------33333333-22222222-22222222--
[ Tab from: http://www.guitartabs.cc/tabs/m/misfits/the_haunting_btab_ver_2.html ]
Riff E: (once)
Ab--55555555-00000000----------66666666--
Eb--------------------33333333-----------

Riff F: (once)
Ab--55555555-00000000-----------6---6-6--
Eb--------------------33333333-----------

Riff E: (once)

Riff G: (once)
Ab--55555555-00000000----------6--6-6-6--
Eb--------------------3---3-3------------

Riff A: (once)
Riff B: (twice)
Riff C: (once)
Riff D: (once)
Riff E: (once)
Riff F: (once)
Riff E: (once)

Riff J: (once)
Ab--55555555-00000000------6--66-5---5--
Eb--------------------3-33--------------

Comments