Misfits - Teenagers From Mars Chords & Tabs

 

Teenagers From Mars Chords & Tabs

Misfits Chords & Tabs

Version: 2 Type: Bass Tab 0 ratings
1 star 2 stars 3 stars 4 stars 5 stars
comments

Teenagers From Mars Bass Tab

		Misfits - Teenagers From Mars
		Album:  Static Age (1977)
		Tabbed by:  Fiend4Life
		Email: schizophrenic666@hotmail.com				

		Riff 1 

	G--------------------------------------------------------------
	D--------------------------------------------------------------
	A-------------------------------------------------------------
	E--3-3-3-3-3-4-4-4-4-5-5-5--------------------------------   ( 6 times )


		Riff 2

	G-----------------------------------------------------------------
	D----------------------------------------------------------------
	A5-5-5-5- 0-0-0-0-0-0-0-0------------------------------------
	E------------------------------------------------------------------    (4 times)


		Riff 3
[ Tab from: http://www.guitartabs.cc/tabs/m/misfits/teenagers_from_mars_btab_ver_2.html ]
	G------------------------------------------------------------------
	D-----------------------------------------------------------------
	A---0-0-0-0-7-7-7-7-7-7-7-7---------------------------------
	E   ----------------------------------------------------------------    ( 3 times )

		Riff 4

	G------------------------------------------------------------------
	D------------------------------------------------------------------
	A--8-8-8-8-0-0-0-0-0-0-0-0-----------------------------------
	E-------------------------------------------------------------------  ( 2 times )

	
		Riff 1 ( 6 times )
		Riff 2 ( 4 times )
		Riff 3 ( 3 times )
		Riff 4 ( 2 times)
		Riff 1 ( 6 times )
		Riff 2 ( 4 times )
		Riff 3 ( 3 times )
		Riff 4 ( 2 times )
		Riff 3 ( 3 times )

		Riff 5
	
	G---------------------------------------------------
	D--------------------------------------------------
	A--0-0-0-0-2-2-2-2-2-2-2-2------------------
	E-------------------------------------------------     

Play this lotsa times to end the song.  That's it.  Enjoy!

Comments