Misfits - Static Age Chords & Tabs

 

Static Age Chords & Tabs

Misfits Chords & Tabs

Version: 1 Type: Tab 0 ratings
1 star 2 stars 3 stars 4 stars 5 stars
comments

Static Age Tab

STATIC AGE
==========
verse riff:
E|---------------------------------|---------------------------------|
B|---------------------------------|---------------------------------|
G|-9-9-9-9-9-9-9-9-9-9-9-9-9-9-9-9-|-9-9-9-9-9-9-9-9-9-9-9-9-9---7-8-|
D|-9-9-9-9-9-9-9-9-9-9-9-9-9-9-9-9-|-9-9-9-9-9-9-9-9-9-9-9-9-9-7-7-8-|
A|-7-7-7-7-7-7-7-7-7-7-7-7-7-7-7-7-|-7-7-7-7-7-7-7-7-7-7-7-7-7-7-5-6-|
E|---------------------------------|---------------------------5-----|
| |
| |
G|---------------------------------|---------------------------------|
D|---------------------------------|---------------------------------|
A|-7-7-7-7-7-7-7-7-7-7-7-7-7-7-7-7-|-7-7-7-7-7-7-7-7-7-7-7-7-7-0-5-6-|
E|---------------------------------|---------------------------------|



Brought to you By : Carrey G. & Jane G.
[ Tab from: http://www.guitartabs.cc/tabs/m/misfits/static_age_tab.html ]
Comments