Misfits - Spinal Remains Chords & Tabs

 

Spinal Remains Chords & Tabs

Misfits Chords & Tabs

Version: 2 Type: Tab 0 ratings
1 star 2 stars 3 stars 4 stars 5 stars
comments

Spinal Remains Tab

spinal remain-the misfits

#16 on static age, tottaly rad song, this is the way i like to play it:
listen to the recording to get the rythm for everything
   intro x3:
|------------------------|
|------------------------|
|------------------------|
|/10-10-10--888-10-10-10-|
|/10-10-10--888-10-10-10-|
|/8--8--8---666-8--8--8--|

   verse:
|-----------|
|-----------|
|-----------|
|-10--6--10-|
|-10--6--10-|
|-8---8--8--|
[ Tab from: http://www.guitartabs.cc/tabs/m/misfits/spinal_remains_tab_ver_2.html ]
   chorus x4:
|---------------------------------|
|---------------------------------|
|---------------------------------|
|-12-12-10-10-8-8-8-8-10-10-10-10-|
|-12-12-10-10-8-8-8-8-10-10-10-10-|
|-10-10-8--8--6-6-6-6-8--8--8--8--|

 post chorus riff:
|------------------------|
|------------------------|
|------------------------|
|-8-8-8-8-8-8-8-8-8-8-10-|
|-8-8-8-8-8-8-8-8-8-8-10-|
|-6-6-6-6-6-6-6-6-6-6-8--|

 song order:
intro
verse (x2)
chorus
post chorus riff
verse
chorus
post chorus riff
Comments