Misfits - Some Kinda Hate Chords & Tabs

 

Some Kinda Hate Chords & Tabs

Misfits Chords & Tabs

Version: 4 Type: Tab 0 ratings
1 star 2 stars 3 stars 4 stars 5 stars
comments

Some Kinda Hate Tab

   
-------------------------------------------------------------------------------
			     SONG NAME - Band Name
-------------------------------------------------------------------------------
Tabbed by: Astrozombie138


Tuning: standard
(verse)
e|---------------------------------------------------------------------------|
B|---------------------------------------------------------------------------|
G|---------------------------------------------------------------------------|
D|---------------------------------------------------------------------------|
A|--10--10-10--10-10--10-10--9--7--7-7--7-7--7-7--9--------------------------|
E|--8---8--8---8--8---8--8---7--5--5-5--5-5--5-5--7--------------------------|

(chorus a)
e|---------------------------------------------------------------------------|
B|---------------------------------------------------------------------------|
G|---------------------------------------------------------------------------|
D|---------------------------------------------------------------------------|
A|--3-3-3-3-3--5-5-5-5-5-5-5-------------------------------------------------|
E|--1-1-1-1-1--3-3-3-3-3-3-3-------------------------------------------------|

(chorus b)
e|---------------------------------------------------------------------------|
B|---------------------------------------------------------------------------|
G|---------------------------------------------------------------------------|
D|---------------------------------------------------------------------------|
A|--3:-----5:----------------------------------------------------------------|
E|--1:-----3:----------------------------------------------------------------|
[ Tab from: http://www.guitartabs.cc/tabs/m/misfits/some_kinda_hate_tab_ver_4.html ]
(interlude)
e|---------------------------------------------------------------------------|
B|---------------------------------------------------------------------------|
G|---------------------------------------------------------------------------|
D|-----------------6-6-6-6-6-6-6-6-------------------------------------------|
A|-6-6-6-6-6-6-6-6-4-4-4-4-4-4-4-4-------------------------------------------|
E|-4-4-4-4-4-4-4-4-----------------------------------------------------------|

(solo)
e|---------------------------------------------------------------------------|
B|---------------------------------------------------------------------------|
G|-14--14-14--12--9--9-9--9-9--9-7-5-7-5--2-2-2-2-2--------------------------|
D|---------------------------------------------------------------------------|
A|---------------------------------------------------------------------------|
E|---------------------------------------------------------------------------|

(last part)
e|---------------------------------------------------------------------------|
B|---------------------------------------------------------------------------|
G|---------------------------------------------------------------------------|
D|---------------------------------------------------------------------------|
A|--3:-----5:-----3:---------------------------------------------------------|
E|--1:-----3:-----1:---------------------------------------------------------|


order:
verse       4x
chorus a    3x
chorus b    1x
verse       4x
chorus a    3x
chorus b    1x
interlude   4x
solo        1x (a 2nd guitar plays the verse during the solo)
verse       2x
chorus a    3x
last part   1x


| :  Hold chord 
| /  slide up
| \  slide down
| h  hammer-on
| p  pull-off
| ~  vibrato
| +  harmonic
| x  Mute note
===============================================================================
Comments