Misfits - Some Kinda Hate Chords & Tabs

 

Some Kinda Hate Chords & Tabs

Misfits Chords & Tabs

Version: 2 Type: Tab 0 ratings
1 star 2 stars 3 stars 4 stars 5 stars
comments

Some Kinda Hate Tab

------------------------------------------------------------------------------
			 Some Kinda Hate- Misfits
-------------------------------------------------------------------------------
Tabbed by: Ian March
Email:Teenage_death_boy666@hotmail.com

Tuning:Standard        

e|-------------------------------------------------------------------------------------|
B|-------------------------------------------------------------------------------------|
G|-------------------------------------------------------------------------------------|
D|-------------------------------------------------------------------------------------|
A|-----10---10--10---10---10---10--10---9---7--77--77---77--9---10--10--10-10---10-----|
E|-----8-----8---8----8----8----8---8---7---5--55--55---55--7---8----8---8--8----8-----|
            Some kind of love, and some kind of hate...
[ Tab from: http://www.guitartabs.cc/tabs/m/misfits/some_kinda_hate_tab_ver_2.html ]
e|-------------------------------------------------------------------------------------|
B|-------------------------------------------------------------------------------------|
G|-------------------------------------------------------------------------------------|
D|------------------------------5--5--5--5--5--5--5--5---------------------------------|
A|----5--5--5--5--5--5--5--5----3--3--3--3--3--3--3--3---------------------------------|
E|----3--3--3--3--3--3--3--3-----------------------------------------------------------|
             Whooaaa   wooo ahhh ohhhhh (how do you spell that?:) )

e|-------------------------------------------------------------------------------------|
B|-------------------------------------------------------------------------------------|
G|-------------------------------------------------------------------------------------|
D|-------------------------------------------6--6--6--6--6--6--6--6--------------------|
A|------6--6--6--6--6--6--6--6---------------4--4--4--4--4--4--4--4--------------------|
E|------4--4--4--4--4--4--4--4---------------------------------------------------------|
     Pre solo

e|-------------------------------------------------------------------------------------|
B|-------------------------------------------------------------------------------------|
G|----14-14-14-14---12-----------------------------------------------------------------|
D|----------------------14-14-14-14-14-14----12--1010/12--10--------------------------|
A|---------------------------------------------------------------12-12-12-12-12-12-----|
E|-------------------------------------------------------------------------------------|
       SOLO ( the misfits have terrible solos...)

 One of my FAVORITE misfits songs!  100% correct too!     enjoy
Comments