Misfits - Skulls Chords & Tabs

 

Skulls Chords & Tabs

Misfits Chords & Tabs

Version: 3 Type: Tab 0 ratings
1 star 2 stars 3 stars 4 stars 5 stars
comments

Skulls Tab

Verse
|--------------|--------------|------------------|--------------|
|--------------|--------------|------------------|--------------|
|--------------|--9--9--9--9--|--11--11--11--11--|--7--7--7--7--| (X4)
|--7--7--7--7--|--9--9--9--9--|--11--11--11--11--|--7--7--7--7--| 
|--7--7--7--7--|--7--7--7--7--|--9---9---9---9---|--5--5--5--5--|
|--5--5--5--5--|--------------|------------------|--------------|

Chorus
|--------------------------|--------------------------|
|--------------------------|--------------------------|
|--------------------------|--7--7--7--7--7--7--7--7--|  (X4)
|--4--4--4--4--4--4--4--4--|--7--7--7--7--7--7--7--7--|
|--4--4--4--4--4--4--4--4--|--5--5--5--5--5--5--5--5--|
|--2--2--2--2--2--2--2--2--|--------------------------|

Exit Chorus
|--------|----------|
|--------|----------|
|--9--9--|--11--11--|
|--9--9--|--11--11--|
|--7--7--|--9---9---|
|--------|----------|

Verse
|--------------|--------------|------------------|--------------|
|--------------|--------------|------------------|--------------|
|--------------|--9--9--9--9--|--11--11--11--11--|--7--7--7--7--| (X2)
|--7--7--7--7--|--9--9--9--9--|--11--11--11--11--|--7--7--7--7--| 
|--7--7--7--7--|--7--7--7--7--|--9---9---9---9---|--5--5--5--5--|
|--5--5--5--5--|--------------|------------------|--------------|

Chorus
|--------------------------|--------------------------|
|--------------------------|--------------------------|
|--------------------------|--7--7--7--7--7--7--7--7--|  (X4)
|--4--4--4--4--4--4--4--4--|--7--7--7--7--7--7--7--7--|
|--4--4--4--4--4--4--4--4--|--5--5--5--5--5--5--5--5--|
|--2--2--2--2--2--2--2--2--|--------------------------|

Exit Chorus
|--------|----------|
|--------|----------|
|--9--9--|--11--11--|
|--9--9--|--11--11--|
|--7--7--|--9---9---|
|--------|----------|
[ Tab from: http://www.guitartabs.cc/tabs/m/misfits/skulls_tab_ver_3.html ]
Verse
|------------------|-----|-----|
|------------------|-----|-----|
|--11--11--11--11--|--9--|--7--|  (X8)
|--11--11--11--11--|--9--|--7--|
|--9---9---9---9---|--7--|--5--|
|------------------|-----|-----|

Exit Verse
|------------------|
|------------------|
|------------------|  (X4)
|--11--11--11--11--|
|--11--11--11--11--|
|--9---9---9---9---|

Chorus
|--------------------------|--------------------------|
|--------------------------|--------------------------|
|--------------------------|--7--7--7--7--7--7--7--7--|  (X2)
|--4--4--4--4--4--4--4--4--|--7--7--7--7--7--7--7--7--|
|--4--4--4--4--4--4--4--4--|--5--5--5--5--5--5--5--5--|
|--2--2--2--2--2--2--2--2--|--------------------------|

|--------|-----------|
|--------|-----------|
|--9--9--|--11--11---|  
|--9--9--|--11--11---|  
|--7--7--|--9---9----|
|--------|-----------|

|--------------------------|--------------------------|
|--------------------------|--------------------------|
|--------------------------|--7--7--7--7--7--7--7--7--|  (X2)
|--4--4--4--4--4--4--4--4--|--7--7--7--7--7--7--7--7--|
|--4--4--4--4--4--4--4--4--|--5--5--5--5--5--5--5--5--|
|--2--2--2--2--2--2--2--2--|--------------------------|

|--------|-----------|
|--------|-----------|
|--9--9--|--11--11---|  
|--9--9--|--11--11---|  
|--7--7--|--9---9----|
|--------|-----------|

|--------------------------|--------------------------|
|--------------------------|--------------------------|
|--------------------------|--7--7--7--7--7--7--7--7--|  (X2)
|--4--4--4--4--4--4--4--4--|--7--7--7--7--7--7--7--7--|
|--4--4--4--4--4--4--4--4--|--5--5--5--5--5--5--5--5--|
|--2--2--2--2--2--2--2--2--|--------------------------|

|--------|-----------|
|--------|-----------|
|--9--9--|--11--11---|  
|--9--9--|--11--11---|  
|--7--7--|--9---9----|
|--------|-----------|

Exit Verse
|------------------|        |------|
|------------------|        |------|
|------------------|  (X2)  |------|
|--11--11--11--11--|        |--11--|
|--11--11--11--11--|        |--11--|
|--9---9---9---9---|        |--9---|
Comments