Misfits - Shining Chords & Tabs

 

Shining Chords & Tabs

Misfits Chords & Tabs

Version: 1 Type: Tab 0 ratings
1 star 2 stars 3 stars 4 stars 5 stars
comments

Shining Tab

   
-------------------------------------------------------------------------------
                                  SHINING - Misfits
-------------------------------------------------------------------------------

tune down half step eb Bb Gb Db Ab eb 

intro drums, then feedback on A# 
  A# 
eb:---
Bb:---
Gb:-7-
Db:-8-
Ab:-x-
eb:-6-

    Intro riff, and other places in the song
[ Tab from: http://www.guitartabs.cc/tabs/m/misfits/shining_tab.html ]
    E    A5    G5 A# 
eb:--------------------
Bb:--------------------
Gb:1-1--11---------:---
Db:2-22-22-7\5-7\5-:8--
Ab:2-22-22-7\5-7\5-:8--
Eb:0-00-00-5\3-5\3-:6--
  
 Verse 
    E             C5     B5
eb:------------------------------
Bb:----------------------------- FILL 
Gb:1-11-1-11-111-5-555-4-444-:--- 
Db:2-22-2-22-222-5-555-4-444-:-x/ 
Ab:2-22-2-22-222-3-333-2-222-:-x/ 
Eb:0-00-0-00-000-------------:-x/ 
  PM----------- <(muffling) | pick scrape UP the neck. 

   Dm D DmDm A5 B     C5       B5
eb:---------------------------------
Bb:5----5-5----------:--------------
Gb:6-66-6-6-----8-888:--------------
Db:6-66-6-7-777-9-999:10101010-9-x\-
Ab:4-44-4-7-777-9-999:10101010-9-x\-
Eb:-------5-555-7-777:-8-8-8-8-7-x\-
                                PICK SCRAPE DOWN 
end 
    A#          E   E 
eb:--------------------
Bb:--------------------
Gb:-7 FeeDBaCk--1---1x-
Db:-8-----------2---2x-
Ab:-8-----------2---2x-
Eb:-6-----------0---0x-

               GDNIMROD345@AOL.COM
Comments