Misfits - Shining Chords & Tabs

 

Shining Chords & Tabs

Misfits Chords & Tabs

Version: 1 Type: Bass Tab 0 ratings
1 star 2 stars 3 stars 4 stars 5 stars
comments

Shining Bass Tab

its my tab here we go
play in the order that its in

Rif: 1
G------------------------------|
D------------------------------|
A------------------------------|
E-0000--5-3-5-3----------------|

Rif 2
G------------------------------|
D------------------------------|
A------------------------------|
E-0000--5-3-5-3--6-------------|

(Rif: 1)

Rif 3
G------------------------------|
D------------------------------|
A------------3333-2222---------|
E-0-00-000---------------------|

(Rif: 1)
[ Tab from: http://www.guitartabs.cc/tabs/m/misfits/shining_btab.html ]
Rif 4
G------------------------------|
D------------------------------|
A-4444-0000-2222---------------|
E------------------------------|

(Rif: 4)
(Rif: 4)

Riff: 5
G------------------------------|
D------------------------------|
A-4444-0000-2222-3333-2222-----|
E------------------------------|

Riff 6
G------------------------------|
D------------------------------|
A------------------------------|
E-5-----------00---------------|


im 98.4% sure that thats right any questions or coment E-mail me or something
Comments