Misfits - She Chords & Tabs

 

She Chords & Tabs

Misfits Chords & Tabs

Version: 3 Type: Tab 0 ratings
1 star 2 stars 3 stars 4 stars 5 stars
comments

She Tab

   
-------------------------------------------------------------------------------
			     She - Misfits
-------------------------------------------------------------------------------
Tabbed by: Astrozombie138

Tuning: Standard

(intro)
e|------------------------------------------------|
B|------------------------------------------------|
G|------------------------------------------------|
D|-------------------7-x-5------------------------|
A|--7-7-7-7-7-7-7-7--5-x-3--5-5-5-5-5--7-7-7-7-7--|
E|--5-5-5-5-5-5-5-5---------3-3-3-3-3--5-5-5-5-5--|

(verse)
e|----------------------------------------------|
B|----------------------------------------------|
G|----------------------------------------------|
D|----------------------------------------------|
A|--7-7-7-7-7-7-7-7-7-7--5-5-5-5-5--7-7-7-7-7---|
E|--5-5-5-5-5-5-5-5-5-5--3-3-3-3-3--5-5-5-5-5---|

(chorus)
e|----------------------------------------|
B|----------------------------------------|
G|----------------------------------------|
D|----------------------------------------|
A|--7-77-77--5-55-55--3-33-33--5-55-55----|
E|--5-55-55--3-33-33--1-11-11--3-33-33----|
[ Tab from: http://www.guitartabs.cc/tabs/m/misfits/she_tab_ver_3.html ]
(fill)
e|------------------------------------------------|
B|------------------------------------------------|
G|------------------------------------------------|
D|------------------------------------------------|
A|--7-7-7-7-7-7-7-7-7-7-7-7-7-7-7-7-7-7-----------|
E|--5-5-5-5-5-5-5-5-5-5-5-5-5-5-5-5-5-5-----------|

(riff 5)
e|-------------------------------|
B|-------------------------------|
G|-------------------------------|
D|-------------------------------|
A|--5-5-5-5-5-5-5--7-7-7-7-7-7-7-|
E|--3-3-3-3-3-3-3--5-5-5-5-5-5-5-|

(outro)
e|------------------------------------------------|
B|------------------------------------------------|
G|------------------------------------------------|
D|------------------------------------------------|
A|--7-7-7-7-7-7-7-7-7-7-7-7-7-7-7-7-7-7:----------|
E|--5-5-5-5-5-5-5-5-5-5-5-5-5-5-5-5-5-5:----------|


order:
intro     2x
verse     4x
chorus    2x
fill      1x
intro     2x
verse     2x
riff 5    2x
outro     1x



| :  Hold chord
| /  slide up
| \  slide down
| h  hammer-on
| p  pull-off
| ~  vibrato
| +  harmonic
| x  Mute note
===============================================================================
Comments