Misfits - Scream Chords & Tabs

 

Scream Chords & Tabs

Misfits Chords & Tabs

Version: 2 Type: Tab 1 rating
1 star 2 stars 3 stars 4 stars 5 stars
comments

Scream Tab

   
Misfits- Scream
standard tuning (E A D G B E)
key: Dbmin
tabbed by Rabidgnat
send corrections/insults to chem_box@hotmail.com


~-`LEGEND'-~

/ slide up
\ slide down

~~~~~~~~~~~~


INTRO
E|---------------------------------------------------
B|---------------------------------------------------
G|---------------------------------------------------
D|---------------------------------------------------
A|4/8--3--4--1---/8--3--4---/8--3--4--1---8--4--3----
E|---------------------------------------------------
*attempt to let each note feedback*

E|---------------------------------------------------
B|---------------------------------------------------
G|---------------------------------------------------
D|-8--6--4---8--6--4---8-----11--8--6--4-------------
A|-8--6--4---8--6--4---8--6--11--8--6--4-------------
E|-6--4--2---6--4--2---6--8--9---6--4--2-------------

____________________________________________________________


RIFF 1
*note: on this line, every note is played eight times
except of course, slides
E|---------------------------------------------------
B|---------------------------------------------------
G|-----------------6--------------------6--6---------
D|--6--6--8--8--4--6--6--6--8--8--4--4--6--6--6--6---
A|--6--6--8--8--4--4--6--6--8--8--4--4--4--4--6--6---
E|-\4--4--6--6--2-----4--4--6--6--2--2--------4--4---

RIFF 2
E|---------------------------------------------------
B|---------------------------------------------------
G|---------------------------------------------------
D|--8--6--4--4---8--6--4--4--------------------------
A|--8--6--4--4---8--6--4--4--------------------------
E|-\6--4--2--2--\6--4--2--2--------------------------


PLAY RIFF 1 AGAIN
PLAY RIFF 2 AGAIN
[ Tab from: http://www.guitartabs.cc/tabs/m/misfits/scream_tab_ver_2.html ]
RIFF 3
E|---------------------------------------------------
B|---------------------------------------------------
G|---------------------------------------------------
D|--8-----11-11--8--6--4--4--------------------------
A|--8--6--11-11--8--6--4--4--------------------------
E|-\6--8--9--9--/6--4--2--2--------------------------

RIFF 4
E|---------------------------------------------------
B|---------------------------------------------------
G|---------------------------------------------------
D|-4--4----------------------------------------------
A|-4--4----------------------------------------------
E|-2--2----------------------------------------------
*palm muted*

RIFF 5
E|---------------------------------------------------
B|---------------------------------------------------
G|-------------6--6----------------------------------
D|-8--8--4-----6--6--6--6----------------------------
A|-8--8--4--4--4--4--6--6-----------------------------
E|-6--6--2--2--------4--4----------------------------

RIFF 6 NOTE: in this riff, each note is played once
E|---------------------------------------------------
B|---------------------------------------------------
G|---------------------------------------------------
D|------------------------------------8-8-8-8-4-4----
A|-8-6-8-6-8---8-6-8-6-8---8-6-8-6-8--8-8-8-8-4-4----
E|-6-4-6-4-6---6-4-6-4-6---6-4-6-4-6--6-6-6-6-2-2----

PLAY RIFF 6 AGAIN

PLAY RIFF 2 AGAIN
PLAY RIFF 3 AGAIN
PLAY RIFF 6 TWICE

end with:
E|---
B|---
G|---
D|8\-
A|8\-
E|6\-

/\/\ AUTHORS NOTE:	this is not guaranteed to be correct.. although most people familiar
^ ^ 			with this song wont be able to tell the difference between this tab
^ ^			and any supposed correct version. If any part of this is confusing/
^ ^			incorrect.. e-mail me to insult me
Comments