Misfits - Scream Chords & Tabs

 

Scream Chords & Tabs

Misfits Chords & Tabs

Version: 2 Type: Bass Tab 0 ratings
1 star 2 stars 3 stars 4 stars 5 stars
comments

Scream Bass Tab

                                 Scream-Misfits
Off The Misfits Album "Famous Monsters"
Tabbed by AstroZombie138 E-mail-astrozombie138@hotmail.com


                                                            Easy...huh??


        slowly 2x                                                       
G---||--------------------------------------------|---------------------
D---||--------------------------------------------|---------------------
A---||-----8\---------6\---------4\---------------|--------8\-----------
E---||--6-------4--4-------2--2-------2--2--0--2--|-----6-------4--4----
                                                                        

                                     even slower 4x                     
G--------------------------------||-----------------------------||------
D--------------------------------||-----------------------------||------
A---6\---------------------------||-----------------------------||------
E--------2--2--2--2--2--2--2--2--||--6-----------4-----------2--||------
                                                                        

    Verse Riff                                                          
G-----------------------------------------------------------------------
D-----------------------------------------------------------------------
A-----------------------------------------------------------------------
E---4--4--4--4--4--4--4--4--4--4--4--4--4--4--4--4--6--6--6--6--6--6----
                                                                        

                                                                        
G-----------------------------------------------------------------------
D-----------------------------------------------------------------------
A------------------------------------------------------4--4--4--4--4----
E---6--6--6--6--6--6--6--6--6--6--2--2--2--2--2--2--2-------------------
                                                                        

                                                                        
G-----------------------------------------------------------------------
D-----------------------------------------------------------------------
A---4--4----------------------------------------------------------------
E---------4--4--4--4--4--4--4--4--4--4--4--4--4--4--4--6--6--6--6--6----
                                                                        

                                                                        
G-----------------------------------------------------------------------
D-----------------------------------------------------------------------
A---------------------------------------------------------4--4--4--4----
E---6--6--6--6--6--6--6--2--2--2--2--2--2--2--2--2--2--2----------------
                                                                        

                                                                        
G------------------------------------------------||---------------------
D------------------------------------------------||---------------------
A---4--4--4--4--4--4-----------------------------||---------------------
E---------------------4--4--4--4--4--4--4--4--4--||--6------------------
                                                                        
[ Tab from: http://www.guitartabs.cc/tabs/m/misfits/scream_btab_ver_2.html ]
    Chorus Riff                  2x               Verse Riff 1x         
G---------------------------------------------||------------------------
D---------------------------------------------||------------------------
A---------------------------------------------||------------------------
E---6--6--6--6--4--4--4--4--4--2--2--2--2--2--||------------------------
                                                                        

           Chorus Riff 4x                                               
G------||-----------------------||--------------------------------------
D------||-----------------------||--------------------------------------
A------||-----------------------||--------------------------------------
E------||-----------------------||--0--0--0--0--0--0--0--0--0--0--0-----
                                                                        

                                                                        
G---------------||------------------------------------------------------
D---------------||------------------------------------------------------
A---------------||------------------------------------------------------
E---0--0--0--0--||--6--6--6--6--6--6--6--6--6--6--6--6--6--2--2--2------
                                                                        

                                                                        
G-----------------------------------------------------------------------
D-----------------------------------------------------------------------
A------------------------------4--4--4--4--4--4--4--4--4--4--4--4-------
E---2--2--2--2--2--2--2--2--2--------------------------------------4----
                                                                        

                                         Hammer-on riff 2x              
G------------------------------------||---------------------------------
D------------------------------------||---------------------------------
A------------------------------------||---------------------------------
E---4--4--4--4--4--4--4--4--4--4-----||--6--4h6--4h6--4h6--4h6--4h6-----
                                                                        

                                           Chorus Riff 4x               
G--------------------------------------||-----------------------||------
D--------------------------------------||-----------------------||------
A--------------------------------------||-----------------------||------
E---4h6--4h6--4h6p4--6--6--6--6--2--1--||-----------------------||------
                                                                        

    Hammer-on Riff 4x                                                   
G---------------------------||------------------------------------------
D---------------------------||------------------------------------------
A---------------------------||--6---------------------------------------
E---------------------------||------------------------------------------
                                                                        



========================================================================
==            Created with a demo version of BUCKET O' TAB            ==
==              tablature creation software for Windows               ==
==                   http://www.his.com/~gse/bucket                   ==
========================================================================

Comments