Misfits - Saturday Night Chords & Tabs

 

Saturday Night Chords & Tabs

Misfits Chords & Tabs

Version: 3 Type: Tab 0 ratings
1 star 2 stars 3 stars 4 stars 5 stars
comments

Saturday Night Tab

   
-------------------------------------------------------------------------------
			     Saturday Night - Misfits
-------------------------------------------------------------------------------
Tabbed by: Astrozombie138

Tuning: 1/2 step down

(riff 1)
eb|---------------------------------------------------------------------------|
Bb|---------------------------------------------------------------------------|
Gb|---------------------------------------------------------------------------|
Db|----7--7:--7-7--x--4--4:--4-4-x--------------------------------------------|
Ab|--7-5--5:--5-5--x--2--2:--2-2-x--5--5:--5-5--x--7--7:--7-7-7-7-7-----------|
Eb|--5------------------------------3--3:--3-3--x--5--5:--5-5-5-5-5-----------|
(PM)                                                      . . . . .

(solo 1)
eb|---------------------------------------------------------------------------|
Bb|---------------------------------------------------------------------------|
Gb|---------------------------------------------------------------------------|
Db|---------------------------------------------------------------------------|
Ab|--5~--7--9--7--5--7--9\5~--5--7--9\5~--7--5--4--5--7--5~(feedback)---------|
Eb|---------------------------------------------------------------------------|

(riff 2)(play the A chord the second time only)
eb|---------------------------------------------------------------------------|
Bb|---------------------------------------------------------------------------|
Gb|---------------------------------------------------------------------------|
Db|--7-7-7-7-7-7-7-7-7-7-7--4-4-4-4-4-4-4-4-4-4-4-----------------------------|
Ab|--5-5-5-5-5-5-5-5-5-5-5--2-2-2-2-2-2-2-2-2-2-2--5-5-5-5-5-5-5-5-5-5-5------|
Eb|------------------------------------------------3-3-3-3-3-3-3-3-3-3-3------|
(PM) . . .   . . . . .   .    . .   . . . . .   .   . . .   . . . . .   .  

(riff 2 cont.)
eb|---------------------------------------------------------------------------|
Bb|---------------------------------------------------------------------------|
Gb|---------------------------------------------------------------------------|
Db|---------------------------------------------------------------------------|(2x)
Ab|--7-7-7-7-7-7-7-7-7-7-7-7--------------------------------------------------|
Eb|--5-5-5-5-5-5-5-5-5-5-5-5--------------------------------------------------|
(PM)   . .   . . . . .   

(riff 3)
eb|---------------------------------------------------------------------------|
Bb|---------------------------------------------------------------------------|
Gb|---------------------------------------------------------------------------|
Db|--7--7:--7-7-----4--4---4-4------------------------------------------------|
Ab|--5--5:--5-5-----2--2:--2-2--5-5-5-5-5-5-5-5-5-5-5-7-7-7-7-7-7-7-7-7-7-7---|
Eb|-----------------------------3-3-3-3-3-3-3-3-3-3-3-5-5-5-5-5-5-5-5-5-5-5---|
(PM)                            . . . . . . . . . . . . . . . . . . . . . .

(riff 4)
eb|---------------------------------------------------------------------------|
Bb|---------------------------------------------------------------------------|
Gb|---------------------------------------------------------------------------|
Db|----------7:--7-7-7-7-7-7-7-7-7-7-7----------------------------------------|(2x)
Ab|--5:--7:--5:--5-5-5-5-5-5-5-5-5-5-5----------------------------------------|
Eb|--3:--5:-------------------------------------------------------------------|
(PM)               . . . . . . . . .

(riff 5)
eb|---------------------------------------------------------------------------|
Bb|---------------------------------------------------------------------------|
Gb|---------------------------------------------------------------------------|
Db|---------------------------------------------------------------------------|
Ab|--5:--7:---\--4-4-4-4-4-4--5-5-5-5-5-5--5:--7:-----------------------------|
Eb|--3:--5:---\--2-2-2-2-2-2--3-3-3-3-3-3--3:--5:-----------------------------|
(PM)             . . . . . .  . . . . . . 

(riff 6)
eb|---------------------------------------------------------------------------|
Bb|---------------------------------------------------------------------------|
Gb|---------------------------------------------------------------------------|
Db|--7-7:--7-7-7--4-4:--4-4-4--------------------7-7:--7-7-7------------------|(2x)
Ab|--5-5:--5-5-5--2-2:--2-2-2--5-5-5-5--7-7-7-7--5-5:--5-5-5------------------|
Eb|----------------------------3-3-3-3--5-5-5-5-------------------------------|

(solo 2)
eb|---------------------------------------------------------------------------|
Bb|---------------------------------------------------------------------------|
Gb|---------------------------------------------------------------------------|
Db|---------------------------------------------------------------------------|
Ab|--5~--7--9--7--5--7--9\5~--5--7--9\5~--7--5--4--5--7--7--------------------|
Eb|---------------------------------------------------------------------------|
[ Tab from: http://www.guitartabs.cc/tabs/m/misfits/saturday_night_tab_ver_3.html ]
(riff 7)
eb|---------------------------------------------------------------------------|
Bb|---------------------------------------------------------------------------|
Gb|---------------------------------------------------------------------------|
Db|--9-9-9-9-9-9-9-9-9-9--6-6-6-6-6-6-6-6-6-6-6-------------------------------|
Ab|--7-7-7-7-7-7-7-7-7-7--4-4-4-4-4-4-4-4-4-4-4--7-7-7-7-7-7-7-7-7-7-7--------|
Eb|----------------------------------------------5-5-5-5-5-5-5-5-5-5-5--------|
(PM)   . .   . . . .   .    . .   . . . . .   .  . . .   . . . . .   .

(riff 7 cont.)
eb|---------------------------------------------------------------------------|
Bb|---------------------------------------------------------------------------|
Gb|-------------------------9-9-9-9-9-9-9-9-9-9-9-9--6-6-6-6-6-6-6-6-6-6-6----|
Db|--4-4-4-4-4-4-4-4-4-4-4--x-x-x-x-x-x-x-x-x-x-x-x--x-x-x-x-x-x-x-x-x-x-x----|
Ab|--2-2-2-2-2-2-2-2-2-2-2--7-7-7-7-7-7-7-7-7-7-7-7--4-4-4-4-4-4-4-4-4-4-4----|
Eb|---------------------------------------------------------------------------|
(PM) . . .   . . . . .   .  . . . . . . . . . . . .  . . . . . . . . . . .

(riff 7 cont.)
eb|---------------------------------------------------------------------------|
Bb|---------------------------------------------------------------------------|
Gb|---------------------------------------------------------------------------|
Db|---------------------------------------------------------------------------|
Ab|--7:-7:--9:--9:------------------------------------------------------------|
Eb|--5:-5:--7:--7:--/-\-------------------------------------------------------|

(riff 8)
eb|---------------------------------------------------------------------------|
Bb|---------------------------------------------------------------------------|
Gb|---------------------------------------------------------------------------|
Db|----------9:--\------------------------------------------------------------|(2x)
Ab|--7:--9:--7:--\2-2-2-2-2-2-------------------------------------------------|
Eb|--5:--7:-------0-0-0-0-0-0-------------------------------------------------|
(PM)              . . . . . .

(riff 9)
eb|---------------------------------------------------------------------------|
Bb|---------------------------------------------------------------------------|
Gb|---------------------------------------------------------------------------|
Db|---------------------------------------------------------------------------|
Ab|--7:--9:--\6-6-6-6-6-6--7-7-7-7-7-7--7:--9:--------------------------------|
Eb|--5:--7:--\4-4-4-4-4-4--5-5-5-5-5-5--5:--7:--------------------------------|

(riff 10)
eb|---------------------------------------------------------------------------|
Bb|---------------------------------------------------------------------------|
Gb|---------------------------------------------------------------------------|
Db|--9--9-9--9-9-9-9-9-9-9--6--6-6--6-6-6-6-6-6-6-----------------------------|
Ab|--7--7-7--7-7-7-7-7-7-7--4--4-4--4-4-4-4-4-4-4--7--7-7-7-7--9--9-9-9-9-----|
Eb|------------------------------------------------5--5-5-5-5--7--7-7-7-7-----|

(riff 10 cont.)
eb|---------------------------------------------------------------------------|
Bb|---------------------------------------------------------------------------|
Gb|---------------------------------------------------------------------------|
Db|--9--9-9--9-9-9-9-9-9-9--9--9-9--9-9-9-9-9-9-9--6--6-6--6-6-6-6-6-6-6------|
Ab|--7--7-7--7-7-7-7-7-7-7--7--7-7--7-7-7-7-7-7-7--4--4-4--4-4-4-4-4-4-4------|
Eb|---------------------------------------------------------------------------|

(riff 10 cont.)
eb|---------------------------------------------------------------------------|
Bb|---------------------------------------------------------------------------|
Gb|---------------------------------------------------------------------------|
Db|---------------------------------------------------------------------------|
Ab|--7--7-7-7-7--9--9-9-9-9---------------------------------------------------|
Eb|--5--5-5-5-5--7--7-7-7-7---------------------------------------------------|

(riff 11)
eb|---------------------------------------------------------------------------|
Bb|---------------------------------------------------------------------------|
Gb|---------------------------------------------------------------------------|
Db|----------6--6--6--6----------------------------------9--9-9-9-------------|
Ab|--7~--6~--4--4--4--4--4~--2~--7--7-7-7-7--9--9-9-9-9--7--7-7-7--7~--6~-----|
Eb|------------------------------5--5-5-5-5--7--7-7-7-7-----------------------|

(riff 11 cont.)
eb|---------------------------------------------------------------------------|
Bb|---------------------------------------------------------------------------|
Gb|---------------------------------------------------------------------------|
Db|--6--6--6--6-------------------------------------2-------------------------|
Ab|--4--4--4--4--4~--2~--7:::--9:::--2::::----------2-------------------------|
Eb|----------------------5:::--7:::--0::::----------0-------------------------|


| :  Let ring
| PM Palm mute
| /  slide up
| \  slide down
| h  hammer-on
| p  pull-off
| ~  vibrato
| +  harmonic
| x  Mute note
===============================================================================
Comments