Misfits - Saturday Night Chords & Tabs

 

Saturday Night Chords & Tabs

Misfits Chords & Tabs

Version: 1 Type: Bass Tab 0 ratings
1 star 2 stars 3 stars 4 stars 5 stars
comments

Saturday Night Bass Tab

Saturday Night - Misfits
tabbed by: ryan b

Play in flat...


Riff A: (once)
Ab--55-5-55-5-55-5-55-5-22-2-22-2-22-2-22-2--
Eb-------------------------------------------

Riff B: (once)
Ab----------------------00-0-00-0-00-0-00-0--
Eb--33-3-33-3-33-3-33-3----------------------

Riff A: (once)
Riff B: (once)
Riff A: (once)
Riff B: (once)
Riff A: (once)
Riff B: (once)
Riff A: (once)
Riff B: (once)

Riff C: (twice)
Ab------------0---------55-5-55-5-55-5-55-5--
Eb--3----------------------------------------

Riff D: (once)
Ab------------0------------------------------
Eb--3-------------------22-2-22-2-33-3-33-3--

Riff E: (once)
Ab------------00-0-00-0--
Eb--33-3-33-3------------

Riff A: (once)

Riff F: (once)
Ab------------00-0-00-0-55-5-55-5-55-5-55-5--
Eb--33-3-33-3--------------------------------
[ Tab from: http://www.guitartabs.cc/tabs/m/misfits/saturday_night_btab.html ]
Riff A: (once)
Riff F: (once)
Riff A: (once)
Riff B: (once)

Riff G: (once)
Ab--77-7-77-7-77-7-77-7-44-4-44-4-44-4-44-4--
Eb-------------------------------------------

Riff H: (once)
Ab--00-0-00-0-00-0-00-0-22-2-22-2-22-2-22-2--
Eb-------------------------------------------

Riff G: (once)
Riff H: (once)

Riff I: (twice)
Ab--00-0-00-0-22-2-22-2----------------------
Eb----------------------00-0-00-0-00-0-00-0--

Riff J: (once)
Ab--00-0-00-0-22-2-22-2-----------00-0-00-0--
Eb----------------------44-4-44-4------------

Riff K: (once)
Ab--00-0-00-0-22-2-22-2--
Eb-----------------------

Riff G: (once)

Riff L: (once)
Ab--00-0-00-0-22-2-22-2-77-7-77-7-77-7-77-7--
Eb-------------------------------------------

Riff G: (once)
Riff K: (once)
Riff G: (once)
Riff K: (once)
Riff G: (once)

Riff M: (once)
Ab--0---------------2-------------0-------0--
Eb-------------------------------------------


Comments