Misfits - Runaway Chords & Tabs

 

Runaway Chords & Tabs

Misfits Chords & Tabs

Version: 1 Type: Tab 0 ratings
1 star 2 stars 3 stars 4 stars 5 stars
comments

Runaway Tab

   
Band: Misfits
Song: Runaway

Tabber: John Cukras
Email: riffreaper@yahoo.com

Tuning: Normal

Riff 1:
E---------------------------------------------------------------------------------|
B---------------------------------------------------------------------------------|
G---------------------------------------------------------------------------------|
D---------------------------------------------------------------------------------|
A------------------------------7---------7---------9---------9--------77-77-77777-|
E-5-3--5-3-5-3 x's 4--00000000-5-0000000-5-0000000-7-0000000-7-000000-55-55-55555-|
pm                    ........   .......   .......   .......   ......

Then:
E-----------------------------------------------------------------------|
B-----------------------------------------------------------------------|
G-----------------------------------------------------------------------|
D-----------------------------------------------------------------------|
A-5--------5--------7--------7---------5---------5--------77-77-7777777-|
E-3-000000-3-000000-5-000000-5-0000000-3-0000000-3-000000-55-55-5555555-|
pm  ......   ......   ......   .......   .......   ......

Riff 2: pm'd last 2 times.
E-------------------------|
B-------------------------|
G-------------------------|
D-------------------------|
A-555555555555-33333333333
E-333333333333-11111111111 x's 4
[ Tab from: http://www.guitartabs.cc/tabs/m/misfits/runaway_tab.html ]
Riff 3:
E-------------------------------------------------|
B-------------------------------------------------|
G-------------------------------------------------|
D-7777777-9999999------------------------9-999999-|
A-5555555-7777777-777777-9999999-777777--7-777777-|
E-----------------555555-7777777-555555-----------|

Riff 4:
E---------------------------------------------------------------------|
B---------------------------------------------------------------------|
G---------------------------------------------------------------------|
D---------------------------------------------------------------------|
A-7777777-5555555-3333333-555555-7777777-5555555-3333333-77-77-777777-|
E-5555555-3333333-1111111-333333-5555555-3333333-1111111-55-55-555555-|

Riff 2

Riff 5:
E---------------------------------------|
B---------------------------------------|
G---------------------------------------|
D-777777-999999-------------------------|
A-555555-777777--777777-999999--------7-|
E----------------555555-777777 x's 4--5-|

Solo:
E------------------------------------------------------------|
B-17-16-14-17-16-14-17-16-14--15-14-13-12~~--12-11-10-9~--5~-|
G------------------------------------------------------------|
D------------------------------------------------------------|
A------------------------------------------------------------|
E------------------------------------------------------------|

E-------------------------------------------------------------------|
B-17-16-14-17-16-14-17-16-14----------------------------------------|
G----------------------------17-18-19~~~--12-13~--10-9-8------------|
D---------------------------------------------------------10-9-8-7~-|
A-------------------------------------------------------------------|
E-------------------------------------------------------------------|
Comments