Misfits - Rise Above Chords & Tabs

 

Rise Above Chords & Tabs

Misfits Chords & Tabs

Version: 1 Type: Tab 0 ratings
1 star 2 stars 3 stars 4 stars 5 stars
comments

Rise Above Tab

Band: misfits
song: rise above

tabber: John Cukras
email: riffreaper@yahoo.com

tuning: normal

Riff 1:
E----------------------------------------------------------------------------------------|
B----------------------------------------------------------------------------------------|
G----------------------------------------------------------------------------------------|
D-888-777-666-555------------------888-777-666-555-----7777------------55555-66666-------|
A-666-555-444-333--------5-7-5-7---666-555-444-333-5-7-5555-3-5--77777-33333-44444-55555-|
E---------------- x's 4--3-5-3-5-------------------3-5------1-3--55555-------------------|
pm                                                                                 .....
[ Tab from: http://www.guitartabs.cc/tabs/m/misfits/rise_above_tab.html ]
Riff 2: Part A                   Part B
E-------------------------|---------------------------------|
B-------------------------|---------------------------------|
G-------------------------|---------------------------------|
D-66666666----------------|-77777---------------------------|
A-44444444-3-5-3-5--------|-55555-77777-5555-3-5--------3-5-|
E----------1-3-1-3 x's 4--|-------55555-3333-1-3 x's 2--1-3-|

Riff 2: Part A + Part B

Riff 3:
E---------------------------------------------------------------------------|
B-/9999-----------999-7-9^^^-----------7-9~~-----------7-9-7-9-7-9----------|
G-/8888--7-9-7-9--888---------7-9-7-9---------7-9-7-9---------------7-9-7-9-|
D--------5-7-5-7--------------5-7-5-7---------5-7-5-7---------------5-7-5-7-|
A---------------------------------------------------------------------------|
E---------------------------------------------------------------------------|

Riff 2: Part B x's 2

Riff 2: Part A + Part B

Outro:
E--------------|
B--------------|
G--------------|
D------------5-|
A-3-5--------3-|
E-1-3 x's 5----|
Comments