Misfits - Return Of The Fly Chords & Tabs

 

Return Of The Fly Chords & Tabs

Misfits Chords & Tabs

Version: 3 Type: Tab 0 ratings
1 star 2 stars 3 stars 4 stars 5 stars
comments

Return Of The Fly Tab

   
-------------------------------------------------------------------------------
			     Return Of The Fly - Misfits
-------------------------------------------------------------------------------
Tabbed by: Astrozombie138

Tuning: Standard

(bass intro/outro) I like playing the bass intro more than the guitar intro.
e|--------------------|
B|--------------------|
G|--------------------|(4x)
D|--------3-----------|
A|--1--4--------3--4--|
E|-----------2--------|

(guitar intro/outro)
e|-------------------------------------------------|
B|-------------------------------------------------|
G|-------------------------------------------------|
D|-------------------------------------------------|
A|--8:--8\4:--4/8:--8\4:--4/8:--8\4:--4/8:--8\4:---|
E|--6:--6\2:--2/6:--6\2:--2/6:--6\2:--2/6:--6\2:---|
[ Tab from: http://www.guitartabs.cc/tabs/m/misfits/return_of_the_fly_tab_ver_3.html ]
(verse)
e|-----------------------------|
B|-----------------------------|
G|-----------------------------|
D|--3--3-3--3-3----------------|
A|--1--1-1--1-1---4--4-4--4-4--|
E|----------------2--2-2--2-2--|

(chorus a)
e|-----------------------------|
B|-----------------------------|
G|-----------------------------|
D|--9--9-9--9-9---7--7-7--7-7--|
A|--7--7-7--7-7---5--5-5--5-5--|
E|-----------------------------|

(chorus b)
e|-----------------------------|
B|-----------------------------|
G|-----------------------------|
D|--9--9-9--9-9---7-6-5-4------|
A|--7--7-7--7-7---5-4-3-2------|
E|-----------------------------|

order:
intro      1x
verse      4x
chorus a   3x
chorus b   1x
verse      4x
chorus a   7x
chorus b   1x
verse      12x
outro      1x



| :  Hold chord
| /  slide up
| \  slide down
| h  hammer-on
| p  pull-off
| ~  vibrato
| +  harmonic
| x  Mute note
===============================================================================
Comments