Misfits - Return Of The Fly Chords & Tabs

 

Return Of The Fly Chords & Tabs

Misfits Chords & Tabs

Version: 2 Type: Tab 0 ratings
1 star 2 stars 3 stars 4 stars 5 stars
comments

Return Of The Fly Tab

   
BAND:MISFITS
SONG:RETURN OF THE FLY
TABBED BY:DENICE
EMAIL:DdWrXx@AOL.COM

TUNNING:NORMAL

E-----------------------|
B-----------------------|
G-----------------------|
D-----------------------|    4X
A--1-4-----4------------|
E------0-2--4-----------|


E--------------------------------|
B--------------------------------|
G--------------------------------|
D--3-3-3-3-----------------------|     4X
A--1-1-1-1-4-4-4-4---------------|
E----------2-2-2-2---------------|


E-------|------------------------|
B-------|------------------------|
G-------|------------------------|
D-------|------------------------|     4X
A-------|-9-9-9-9-9--7-7-7-7-7---|
E-4-5-6-|-7-7-7-7-7--5-5-5-5-5---|


E-------|------------------------|
B-------|------------------------|
G-------|------------------------|
D-------|3-3-3-3-----------------|     4X
A-------|1-1-1-1-4-4-4-4---------|
E-4-5-6-|--------2-2-2-2---------|

[ Tab from: http://www.guitartabs.cc/tabs/m/misfits/return_of_the_fly_tab_ver_2.html ]
E-------|------------------------|
B-------|------------------------|
G-------|------------------------|
D-------|------------------------|     8X
A-------|-9-9-9-9-9--7-7-7-7-7---|
E-4-5-6-|-7-7-7-7-7--5-5-5-5-5---|


E-------|------------------------|
B-------|------------------------|
G-------|------------------------|
D-------|3-3-3-3-----------------|     4X
A-------|1-1-1-1-4-4-4-4---------|
E-4-5-6-|--------2-2-2-2---------|


E-------|------------------------|
B-------|------------------------|
G-------|------------------------|
D-------|3-3-3-3-----------------|     4X
A-------|1-1-1-1-4-4-4-4---------|
E-4-5-6-|--------2-2-2-2---------|


E-------|------------------------|
B-------|------------------------|
G-------|------------------------|
D-------|3-3-3-3-----------------|     4X
A-------|1-1-1-1-4-4-4-4---------|
E-4-5-6-|--------2-2-2-2---------|


E-------|
B-------|
G-------|
D-------|
A-------|
E-4-5-6-|


E-----------------------|
B-----------------------|
G-----------------------|
D-----------------------|    4X
A--1-4-----4------------|
E------0-2--4-----------|


E---|
B---|
G---|
D---|
A-3-|
E-1-|
Comments