Misfits - Return Of The Fly Chords & Tabs

 

Return Of The Fly Chords & Tabs

Misfits Chords & Tabs

Version: 4 Type: Bass Tab

Return Of The Fly Bass Tab

-----------------------------------------------------------------
Return of the fly - Misfits
-----------------------------------------------------------------

Tabbed By : DehumanizeR
e-mail: stivharris@hotmail.com

Tuning: standard
Other: distortion and wah wah


intro
G|------------------------------|
D|--------3---------3-----------| 
A|-1--4---------4---------------|
E|------------2-----------------|
[ Tab from: http://www.guitartabs.cc/tabs/m/misfits/return_of_the_fly_btab_ver_4.html ]
verse
G|----------------------------------------------------|
D|----------------------------------------------------| 
A|-1-11-111---------------1-11-11---------------------|
E|--------------2-22-22-------------2-22-22-----------|

chorus
G|------------------------------------|
D|------------------------------------|
A|-7-77-777-5-55-555------------------|
E|------------------------------------|

the forth( eight in the second chorus)  time instead of 5-55-555
|-------------------|
|-------------------|
|---5-4-3-2---------|
|-------------------|


note: Jerry does variuos rythm's sometimes but this is the basics