Misfits - Resurrection Chords & Tabs

 

Resurrection Chords & Tabs

Misfits Chords & Tabs

Version: 1 Type: Bass Tab 0 ratings
1 star 2 stars 3 stars 4 stars 5 stars
comments

Resurrection Bass Tab

Resurrection - Misfits
tabbed by: ryan b

Riff A: (4 times)
Ab--5-555555--2-222222------------0-000000--
Eb----------------------3-333333------------

Riff B: (twice)
Ab--------0000--22222222-2222-2-0--
Eb--3333---------------------------
[ Tab from: http://www.guitartabs.cc/tabs/m/misfits/resurrection_btab.html ]
Riff C: (once)
Ab--------0000--55--44--22--00--------0-0-0-0-0-0--
Eb--3333------------------------3333---------------

Riff A: (twice)
Riff B: (twice)
Riff C: (once)
Riff A: (4 times)

Riff D: (once)
Ab--5-----2-----------0-------5---
Eb--------------3-----------------



Comments