Misfits - No More Moments Chords & Tabs

 

No More Moments Chords & Tabs

Misfits Chords & Tabs

Version: 1 Type: Tab 0 ratings
1 star 2 stars 3 stars 4 stars 5 stars
comments

No More Moments Tab

   
NO MORE MOMENTS
===============
transcription: Justin W.

Note: The notes in parentheses are played by a keyboard.

eb:----------------------------------
Bb:----------------------------------
Gb:(0)-------(0)----(0)--------------
Db:-------------(2)------------------
Ab:----1------1--2-------1---5-7-9-8-
Eb:0-------0---------0-------3-5-7-6-

after that riff 
Eb:---
Bb:---
Gb:---
Db:/8-
Ab:/x-
Eb:/6-
that A# octave really fast
[ Tab from: http://www.guitartabs.cc/tabs/m/misfits/no_more_moments_tab.html ]
eb:---------------------------------------------
Bb:---------------------------------------------
Gb:--------3--------4---------3-----------------
Db:--------3--------4---------3-----------------
Ab:2-------1--------2---------1---------5/7-9-8-
Eb:0-000000---000000---0000000--0000000-3/5-7-6-

verse
eb:------------------------------
Bb:------------------------------
Gb:------------------------------
Db:7------------7/8-7----------5-
Ab:7-7777777777-7/8-7-77777777-5-
Eb:5-5555555555-5/6-5-55555555-3-
PM   ----------       --------

Chorus
eb:------------
Bb:------------
Gb:------------
Db:------------
Ab:------------
Eb:00-22-33-22-
PM -----------

bridge
eb:--------------------
Bb:--------------------
Gb:7-6-5-4-3:9-8-7-6-5-
Db:7-6-5-4-3:9-8-7-6-5-
Ab:5-4-3-2-1:7-6-5-4-3-
Eb:--------------------
Comments