Misfits - Nike A Go Go Chords & Tabs

 

Nike A Go Go Chords & Tabs

Misfits Chords & Tabs

Version: 1 Type: Tab 0 ratings
1 star 2 stars 3 stars 4 stars 5 stars
comments

Nike A Go Go Tab

band: Misfits
Song: nike a go go

Tabber: John Cukras
email: riffreaper@yahoo.com

Tuning: normal

riff 1:
E-------------------------------------------------
B-------------------------------------------------
G-------------------------------------------------
D----------------------55-44----------------------
A-55555-888888-333333--33-22-88-77-55------------5 x's 4
E-33333-666666-111111--------66-55-33 x's 2 -----3
[ Tab from: http://www.guitartabs.cc/tabs/m/misfits/nike_a_go_go_tab.html ]
Riff 2:
E-----------------------------
B-----------------------------
G-----------------------------
D----------5-4----------------
A-5--8--3--3-2-8-7-5---------5
E-3--6--1------6-5-3 x's 4---3 x's 4

Riff 2 

Riff 3
E-------------------------------------------------------
B-------------------------------------------------------
G-------------------------------------------------------
D---------5555555-----------------55555555-88888888-----
A-5555555-3333333----5------------33333333-66666666----5
E-3333333------------3 x's 4---------------------------3 x's 4

Riff 4:
E--------
B--------
G--------
D----2--7
A-3--2--5
E-1--0---  x's 13
Comments