Misfits - Nike A Go Go Chords & Tabs

 

Nike A Go Go Chords & Tabs

Misfits Chords & Tabs

Version: 2 Type: Bass Tab 0 ratings
1 star 2 stars 3 stars 4 stars 5 stars
comments

Nike A Go Go Bass Tab

Nike A Go Go - Misfits
tabbed by: ryan b

Riff A: (once)
A------------------------------3-2-1-0--
E--33333333-33333333-33333333-----------

Riff B: (once)
A-----------11111111-----------3-2-1-0--
E--33333333----------11111111-----------

Riff C: (once)
A---------------------------------------
E--3--------3--------3---------3--------
[ Tab from: http://www.guitartabs.cc/tabs/m/misfits/nike_a_go_go_btab_ver_2.html ]
Riff B: (4 times)
Riff C: (once)
Riff B: (4 times)
Riff C: (once)

Riff D: (once)
A--------------------33333333-33333333--
E--33333333-33333333--------------------

Riff C: (once)

Riff E: (once)
A--------------------66666666-66666666--
E--33333333-33333333--------------------

Riff C: (once)

Riff F: (12 times)
A-------------7--7--7--7----5--5--5--5--
E--11111111-----------------------------

Riff G: (once)
A--------
E--1--1--

Comments