Misfits - Mommy Can I Go Out And Kill Tonight Chords & Tabs

 

Mommy Can I Go Out And Kill Tonight Chords & Tabs

Misfits Chords & Tabs

Version: 3 Type: Tab 0 ratings
1 star 2 stars 3 stars 4 stars 5 stars
comments

Mommy Can I Go Out And Kill Tonight Tab

Band: Misfits
Song: Mommy, can I go out and kill tonight

Tabber: John Cukras
Email: riffreaper@yahoo.com

Tuning: Normal

[ Tab from: http://www.guitartabs.cc/tabs/m/misfits/mommy_can_i_go_out_and_kill_tonight_tab_ver_3.html ]
Riff 1:
E---------------------------------
B---------------------------------
G---------------------------------
A-----------555555555-------------
D-777777777-333333333-----------7-
E-555555555-----------x's 3 ---5-

pause

Riff 2
E--------------------
B--------------------
G--------------------
D---5----------------
A-7-3-7-5----------5-
E-5---5-3 x's 8 ---3-


Riff 2 x's 8


RIff 2 x's 8


Riff 2 x's 8


Riff 2 x's 8


Riff 2 x's 8
Comments