Misfits - Mommy Can I Go Out And Kill Tonight Chords & Tabs

 

Mommy Can I Go Out And Kill Tonight Chords & Tabs

Misfits Chords & Tabs

Version: 2 Type: Tab 0 ratings
1 star 2 stars 3 stars 4 stars 5 stars
comments

Mommy Can I Go Out And Kill Tonight Tab

   
##################################################################################
# This file is the author's own work and represents their interpretation of the  #
# song. You may only use this file for private study, scholarship, or research.  #
##################################################################################

Artist- Misfits
Title-  Mommy Can i Go Out and Kill Tonight?
Tabbed By- Tony L.



          A5                  C5
e----------------------------------------------------
b----------------------------------------------------
g-------------------------555555555555---------------
d--777777777777777777777--555555555555---------------
a--777777777777777777777--333333333333---------------
E--555555555555555555555----------------(2x)---------

          A5                   C5          A5
e----------------------------------------------------|
b----------------------------------------------------|
g-------------------------555555555555---------------|
d--777777777777777777777--555555555555------7--------|
a--777777777777777777777--333333333333------7--------|
E--555555555555555555555--------------------5--------|

Mommy I'm a good boy                                                    
Mommy I'm a f***** savior                                              
Mommy I'm alive 

   

**SILENT**
Mommy, can I go out and KILL TONIGHT?


THE REST OF THE SONG ARE THESE FOUR CHORDS 
IN THIS ORDER, AND PLAYED FAST

   A5 | C5  | A5  | G5  |
e-----|-----|-----|-----|
b-----|-----|-----|-----|
g-----|--5--|-----|-----|
d--7--|--5--|--7--|--5--|
a--7--|--3--|--7--|--5--|
E--5--|-----|--5--|--3--|

CHECK FOR TIMING,  TIMING DIFERS ON THE VERSE---HERE ARE THE WORDS


*************************************************************************************************************

*************************************************************************************************************

Artist:Misfits
Song:Hybrid Moments
By:Joe L

CHORDS
D       B       G      Eb     A
----------------------------------------
----------------------------------------
7-------7-------------------------------
7-------7-------5-------------7---------
5-------2-------5-------------7---------
----------------3-------------5---------



*************************************************************************************************************

*************************************************************************************************************


Title: "Saturday Night"
Band: Misfits
Album:Famous Monsters
Music:No One
Transcribed By:Mike Nickerson
My Email:Anguspunk2002@yahoo.com

Figure out the strums yourself
E|-----------------------------------------------------------
B|-----------------------------------------------------------
G|-----6---7---4---------------------------------------------
D|-----6---7---4---5---7-------------------------------------
A|-----4---5---2---5---7-------------------------------------
E|-----------------3---5-------------------------------------

(Palm muted)
E|-----------------------------------------------------------
B|-----------------------------------------------------------
G|-----7---4-------------------------------------------------
D|-----7---4---5---7-----------------------------------------
A|-----5---2---5---7-----------------------------------------
E|-------------3---5-----------------------------------------


Thanks for looking at the tab haha good luck with the rest


***********************************************************************************************************************

***********************************************************************************************************************

[ Tab from: http://www.guitartabs.cc/tabs/m/misfits/mommy_can_i_go_out_and_kill_tonight_tab_ver_2.html ]
Here is the solo tab for Saturday Night, i'll figure out the rest since
 that angus asshole didnt do it.

-----------------------------------------------
-----------------------------------------------
-----------------------------------------------
-----------------------------------------------
--1h4---8-6-4-6-8-4---4-6-8-4---6-4-3--4-6-6---
-----------------------------------------------

and thats it,pretty simple, but like i said, ill figure the rest out 
later,if u have any comments or ?'s, email me at 

punkscotsman627@bellsouth.net

peace


**********************************************************************************************************************************

*********************************************************************************************************************************

Date: Thu, 6 Nov 1997 16:49:07 -0600
From: Tom Tanto 
To: guitar@olga.net
Subject: TAB:'She' by 'MISFITS'


    Song: She
Album(s): Cough/Cool
          Legacy Of Brutality
          Collection I
          Box Set
          Violent World: A Tribute to the Misfits*
  Artist: the MISFITS (Written by Glenn Danzig)
          *Snapcase

      ~Transcribed by Eric Carroll tomtanto@sgi.net (work e-mail address)~


           »-> Tune Down ½ Step or, Standard depending on the recording
                       *Snapcase tunes down to D (I think)

Chords:
       A5                       G5                       F5
  |-|-|-X-X-X              |-|-|-X-X-X              ======X=X=X 


*******************************************************************************************************************************************

*******************************************************************************************************************************************

Misfits - Skulls

This is the main part in the beginning and the verses. 
This is all I have right now.


|---------------------------------------------------------|
|---------------------------------------------------------|                                  
|--------------9999999---11-11-11-11-11-11-11--7777777----|                     
|----7777777---9999999---11-11-11-11-11-11-11--7777777----|
|----7777777---7777777---9--9--9--9--9--9--9---5555555----|
|----5555555----------------------------------------------|

Questions/Comments: woodo@attbi.com


*****************************************************************************************************************************************************

*****************************************************************************************************************************************************


Title: We are 138
Band: The Misfits
Album:Collection II
Transcribed By:Mike Nickerson
My Email:anguspunk2002@yahoo.com


E|----------------------------------------------------------
B|----------------------------------------------------------
G|--------10-10-10-10--6----8-------------------------------
D|--------10-10-10-10--6----8-------------------------------
A|--------8--8--8--8---4----6-------------------------------
E|----------------------------------------------------------

E|-----------------------------------------------------------
B|-----------------------------------------------------------
G|-------10-10-10---6----8-----6-6-6-6-8-8-8-8---------------
D|-------10-10-10---6----8-----6-6-6-6-8-8-8-8---------------
A|--------8-8--8----4----6-----4-4-4-4-6-6-6-6---------------
E|-----------------------------------------------------------

Solo
E|-----------------------------------------------------------
B|----17 18 18-18-17-18-18-18-17-18-18-17-18-18b18b----------
G|-----------------------------------------------------------
D|-----------------------------------------------------------
A|-----------------------------------------------------------
E|-----------------------------------------------------------
Comments