Misfits - Living Hell Chords & Tabs

 

Living Hell Chords & Tabs

Misfits Chords & Tabs

Version: 1 Type: Tab 0 ratings
1 star 2 stars 3 stars 4 stars 5 stars
comments

Living Hell Tab

-------------------------------------------------------------------------------
                              LIVING HELL - Misfits
-------------------------------------------------------------------------------

Tune down 1/2 step:

|----------|----------------------|
|-fades in-|-----play-4-times-----|
|----------|----------------------|
|-----7----|-7-7-7-7-7-7-7--3---5-|
|-----7----|-7-7-7-7-7-7-7--3---5-|
|-----5----|-5-5-5-5-5-5-5--1---3-|

|-------------------------|---------------------------------------------------------|
|------play-8-times-------|---------------------------------------------------------|
|-------------------------|---------------------------------------------------------|
|-7-7-7-7-7-7-7-----------|-3---------7---------2-----------------------------------|
|-7-7-7-7-7-7-7-----------|-3---------7---------2---------3-3-3-3-3-3-3-3-3-3-3-3---|
|-5-5-5-5-5-5-5--1~~--3~~-|-1---------5---------0---------1-1-1-1-1-1-1-1-1-1-1-1-\-|
    pm---------

|--------------------------------------------------|
|--------------------------------------------------|
|--------------------------------------------------|
|-3---------7---------5---------5-5-5-5-5-5-5-5-5--|
|-3---------7---------5---------5-5-5-5-5-5-5-5-5--|
|-1---------5---------3---------3-3-3-3-3-3-3-3-3\-|

|-------------------------------------------|-------------------------|
|----------------play-3-times---------------|-------------------------|
|-------------------------------------------|-------------------------|
|-7-7-7-7-7-7-----------3-3-3-3-3-5-5-5-5-5-|-3---------2-------------|
|-7-7-7-7-7-7--7--5--3--3-3-3-3-3-5-5-5-5-5-|-3---------2-------------|
|-5-5-5-5-5-5-----------1-1-1-1-1-3-3-3-3-3-|-1---------0-----0---3~~-|

|----------------------|
|-----play-4-times-----|
|----------------------|
|-7-7-7-7-7-7-7--3---5-|
|-7-7-7-7-7-7-7--3---5-|
|-5-5-5-5-5-5-5--1---3-|
[ Tab from: http://www.guitartabs.cc/tabs/m/misfits/living_hell_tab.html ]
|-------------------------|---------------------------------------------------------|
|------play-8-times-------|---------------------------------------------------------|
|-------------------------|---------------------------------------------------------|
|-7-7-7-7-7-7-7-----------|-3---------7---------2-----------------------------------|
|-7-7-7-7-7-7-7-----------|-3---------7---------2---------3-3-3-3-3-3-3-3-3-3-3-3---|
|-5-5-5-5-5-5-5--1~~--3~~-|-1---------5---------0---------1-1-1-1-1-1-1-1-1-1-1-1-\-|
  pm---------

|--------------------------------------------------|
|--------------------------------------------------|
|--------------------------------------------------|
|-3---------7---------5---------5-5-5-5-5-5-5-5-5--|
|-3---------7---------5---------5-5-5-5-5-5-5-5-5--|
|-1---------5---------3---------3-3-3-3-3-3-3-3-3\-|

|-------------------------------------------|-------------------------|
|----------------play-3-times---------------|-------------------------|
|-------------------------------------------|-------------------------|
|-7-7-7-7-7-7-----------3-3-3-3-3-5-5-5-5-5-|-3---------2-------------|
|-7-7-7-7-7-7--7--5--3--3-3-3-3-3-5-5-5-5-5-|-3---------2-------------|
|-5-5-5-5-5-5-----------1-1-1-1-1-3-3-3-3-3-|-1---------0-----0---3~~-|

|----------------------|------------------|
|-----play-4-times-----|------------------|
|----------------------|------------------|
|-7-7-7-7-7-7-7--3---5-|-7~~--------------|
|-7-7-7-7-7-7-7--3---5-|-7~~--w/-feedback-|
|-5-5-5-5-5-5-5--1---3-|-5~~--------------|

|---------------------------------------------------------|
|---------------------------------------------------------|
|---------------------------------------------------------|
|-3---------7---------2-----------------------------------|
|-3---------7---------2---------3-3-3-3-3-3-3-3-3-3-3-3---|
|-1---------5---------0---------1-1-1-1-1-1-1-1-1-1-1-1-\-|

|--------------------------------------------------|
|--------------------------------------------------|
|--------------------------------------------------|
|-3---------7---------5---------5-5-5-5-5-5-5-5-5--|
|-3---------7---------5---------5-5-5-5-5-5-5-5-5--|
|-1---------5---------3---------3-3-3-3-3-3-3-3-3\-|

|-------------------------------------------|-------------------------|
|----------------play-3-times---------------|-------------------------|
|-------------------------------------------|-------------------------|
|-7-7-7-7-7-7-----------3-3-3-3-3-5-5-5-5-5-|-3---------2-------------|
|-7-7-7-7-7-7--7--5--3--3-3-3-3-3-5-5-5-5-5-|-3---------2-------------|
|-5-5-5-5-5-5-----------1-1-1-1-1-3-3-3-3-3-|-1---------0-----0---3~~-|

|----------------------|---|
|-----play-4-times-----|---|
|----------------------|---|
|-7-7-7-7-7-7-7--3---5-|-7-|
|-7-7-7-7-7-7-7--3---5-|-7-|
|-5-5-5-5-5-5-5--1---3-|-5-|

=============================================================================
Comments