Misfits - Last Caress Chords & Tabs

 

Last Caress Chords & Tabs

Misfits Chords & Tabs

Version: 2 Type: Tab 0 ratings
1 star 2 stars 3 stars 4 stars 5 stars
comments

Last Caress Tab

KEY: h = Hammer-On


Verse 1 Fig.1
1-|-------------------------------------------|
2-|-------------------------------------7h8-7-|
3-|---------10-12---------10-12-10---7--------|
4-|-10------10-12-10------10-12-10---7--------|
5-|-10------8--10-10------8--10-8----5--------|
6-|-8-------------8---------------------------|


Fig.2
1-|---------------------------------------------|
2-|---------------------------------------------|
3-|---------------------------------------10-12-|
4-|-10-10-10-10--10-10-10-10--10-10-10-10-10-12-|
5-|-10-10-10-10--10-10-10-10--10-10-10-10-8--10-| x2
6-|-8--8--8--8---8--8--8--8---8--8--8--8--------|


Verse 2 Fig.3
1-|---------------------------------------------|
2-|---------------------------------------------|
3-|---------------------------------------10-12-|
4-|-10-10-10-10--10-10-10-10--10-10-10-10-10-12-|
5-|-10-10-10-10--10-10-10-10--10-10-10-10-8--10-| x2
6-|-8--8--8--8---8--8--8--8---8--8--8--8--------|

|---------------------------------------------
|---------------------------------------------
|-10-10-10-10--10-10-10-10--7-7-7-7--7-7-7-7--
|-10-10-10-10--10-10-10-10--7-7-7-7--7-7-7-7--
|-8--8--8--8---8--8--8--8---5-5-5-5--5-5-5-5--
|---------------------------------------------
[ Tab from: http://www.guitartabs.cc/tabs/m/misfits/last_caress_tab_ver_2.html ]
----------------------------------------------------|
----------------------------------------------------|
----------------------------------------------------|
-10-10-10-10--10-10-10-10--10-10-10-10--10-10-10-10-|
-10-10-10-10--10-10-10-10--10-10-10-10--10-10-10-10-|
-8--8--8--8---8--8--8--8---8--8--8--8---8--8--8--8--|


Chorus Fig.4
1-|----------------------------------------------------
2-|----------------------------------------------------
3-|-10-10-10-10--10-10-10-10--12-12-12-12--12-12-12-12-
4-|-10-10-10-10--10-10-10-10--12-12-12-12--12-12-12-12-
5-|-8--8--8--8---8--8--8--8---10-10-10-10--10-10-10-10-
6-|----------------------------------------------------

-----------------------------------------------------
-----------------------------------------------------
--------------9-9-9-9--------------------10-10-10-10-
-10-10-10-10--9-9-9-9--7-7-7-7--7-7-7-7--10-10-10-10-
-10-10-10-10--7-7-7-7--7-7-7-7--7-7-7-7--8--8--8--8--
-8--8--8--8------------5-5-5-5--5-5-5-5--------------

---------------------------------------|
---------------------------------------|
-10-10-10-10--12-12-12-12--12-12-12-12-|
-10-10-10-10--12-12-12-12--12-12-12-12-|
-8--8--8--8---10-10-10-10--10-10-10-10-|
---------------------------------------|


Fig.5
1-|----------------------------------------------------|
2-|----------------------------------------------------|
3-|---------------------------10-10-10-12--12-12-12-12-|
4-|-10-10-10-10--10-10-10-10--10-10-10-12--12-12-12-12-|
5-|-10-10-10-10--10-10-10-10--8--8--8--10--10-10-10-10-| x2
6-|-8--8--8--8---8--8--8--8----------------------------|


That's ALL you need to know. It's easy enough to follow with the song.
Comments