Misfits - Last Caress Chords & Tabs

 

Last Caress Chords & Tabs

Misfits Chords & Tabs

Version: 3 Type: Bass Tab 0 ratings
1 star 2 stars 3 stars 4 stars 5 stars
comments

Last Caress Bass Tab

Artist- Misfits
Song -last Caress
Stanard tuning

INTRO  PLAY 1X
G--------------------|
D--------------------|
A---3-5----3-5--3----|
E-3------3---------5-|

PLAY 2X
G-----------------|
D-----------------|
A--------------3-5|
E-3-3-3-3-3-3-----|


PLAY 3X
[ Tab from: http://www.guitartabs.cc/tabs/m/misfits/last_caress_btab_ver_3.html ]
G--------------------------------------------------------------------------|
D--------------------------------------------------------------------------|
A--------3-3-3-3-3-5-5-5-5-5----------2-2-2-2-2-7-7-7-7-7-3-3-3-3-3-5-5-5-5|
E-3-3-3-3-------------------3-3-3-3-3--------------------------------------|


G-----------------------------|
D-----------------------------|
A-----------3-5-----------3-5-|
E-3-3-3-3-3-----3-3-3-3-3-----|
Comments