Misfits - Kong At The Gates Chords & Tabs

 

Kong At The Gates Chords & Tabs

Misfits Chords & Tabs

Version: 1 Type: Bass Tab 0 ratings
1 star 2 stars 3 stars 4 stars 5 stars
comments

Kong At The Gates Bass Tab

Kong At The Gates - Misfits
tabbed by: ryan b

***rest for gong/chant/roars/drums (0:00 - 0:16)

Riff A: (once)
Gb-------
Db-------
Ab-------
Eb--6\1--

Riff B: (twice)
Gb--------------------------------------------------
Db--------------------------------------------------
Ab--0------3-2-----3-2-0----3---2-3--2-3--2-3--2----
Eb-----------------------------------------------3--
[ Tab from: http://www.guitartabs.cc/tabs/m/misfits/kong_at_the_gates_btab.html ]
Riff C: (twice)
Gb--------------------------------------------------
Db---------3-2--------------3---2-3--2-3--2-3--2----
Ab--0--------------3-2-0-------------------------3--
Eb--------------------------------------------------

Riff B: (once)

Riff D: (once)
Gb--------------------------------------------------
Db--------------------------------------------------
Ab--0--------------3-2-0-------------------------0--
Eb---------2-1-------------2--1-2--1-2--1-2--1-0----


Comments