Misfits - In The Doorway Chords & Tabs

 

In The Doorway Chords & Tabs

Misfits Chords & Tabs

Version: 1 Type: Tab 0 ratings
1 star 2 stars 3 stars 4 stars 5 stars
comments

In The Doorway Tab

Song: In The Doorway
Band: The Misfits
Tabbed by: YayO

Verse:
[ Tab from: http://www.guitartabs.cc/tabs/m/misfits/in_the_doorway_tab.html ]
|--------------------------------------------------------------|
|--------------------------------------------------------------|
|--------------------------------------------------------------|
|--7---7-7-7-7-7--5-5-5-5-5--7-7-7-7-7-7--3-3-3-3-3-2-2-3-3-3--|
|--7---7-7-7-7-7--5-5-5-5-5--7-7-7-7-7-7--3-3-3-3-3-2-2-3-3-3--|
|--5---5-5-5-5-5--3-3-3-3-3--5-5-5-5-5-5--1-1-1-1-1-0-0-1-1-1--|

Bridge:

|---------------------|
|---------------------|
|---------------------|
|--7-7--7-7-7-12---X2-|
|--7-7--7-7-7-12------|
|--5-5--5-5-5-10------|

Ends:

|---------------------------------|
|---------------------------------|
|---------------------------------|
|--7--7-7-7-7-7--3--3-3-3-3-3--X5-|
|--7--7-7-7-7-7--3--3-3-3-3-3-----|
|--5--5-5-5-5-5--1--1-1-1-1-1-----|

YaYo!.AreNaS!.mENdiEtA!.jOrgE!.

kaddii t amooOw!
Comments