Misfits - In The Doorway Chords & Tabs

 

In The Doorway Chords & Tabs

Misfits Chords & Tabs

Version: 1 Type: Bass Tab 0 ratings
1 star 2 stars 3 stars 4 stars 5 stars
comments

In The Doorway Bass Tab

----------------------------------------------------------------------------
			     In The Doorway - Misfits
----------------------------------------------------------------------------

Tabbed By :grem
e-mail: sk84flip777@hotmail.com

Tuning:normal
[ Tab from: http://www.guitartabs.cc/tabs/m/misfits/in_the_doorway_btab.html ]
Riff 1 - 3 times
G|-------------------------------------------------------|
D|-------------------------------------------------------|
A|----------------------5--7--8888888--777777--88888888--|
E|-55555--33333--55555-----------------------------------|

Riff 2 - 4 times
G|-----------|
D|-----------|
A|--------5--|
E|-5--55-----|

Play riff 1 2 more times

Riff 3
G|--------------------------|
D|--------------------------|
A|-------5--7--8--88--7--5--|
E|-5--55--------------------|

End
G|-------|
D|-------|
A|-------|
E|-5-----|
Comments