Misfits - I Wanna Be A Ny Ranger Chords & Tabs

 

I Wanna Be A Ny Ranger Chords & Tabs

Misfits Chords & Tabs

Version: 1 Type: Tab 0 ratings
1 star 2 stars 3 stars 4 stars 5 stars
comments

I Wanna Be A Ny Ranger Tab

   
Band: Misfits
Song: I want be a New York Ranger

Tabber: John Cukras
Email: riffreaper@yahoo.com

Tuning: Normal

Riff 1:
E----------------------|
B----------------------|
G----------------------|
D-33333-3--------------|
A-11111-1-55-33--------|
E---------33-11  x's 8-|
[ Tab from: http://www.guitartabs.cc/tabs/m/misfits/i_wanna_be_a_ny_ranger_tab.html ]
Riff 2:
E-------------------------------------------------|
B-------------------------------------------------|
G-------------------------------------------------|
D---------------333333---------------333333-------|
A-333333-555555-111111-333333-555555-111111-77-55-|
E-111111-333333--------111111-333333--------55-33-|

Riff 1 x's 5

Riff 2

Riff 1 x's 5

Riff 2

Outro:
E--------------------------------------------------------|
B--------------------------------------------------------|
G--------------------------------------------------------|
D------------------------------------------------------3-|
A-333333-555555----88-77-55-33333-55555--------------5-1-|
E-111111-333333----66-55-33-11111-33333 x's 2 -00000-3---|
pm                                             .....
Comments