Misfits - I Got A Right Chords & Tabs

 

I Got A Right Chords & Tabs

Misfits Chords & Tabs

Version: 1 Type: Tab 0 ratings
1 star 2 stars 3 stars 4 stars 5 stars
comments

I Got A Right Tab

Band: Misfits
Song: I got a right

Tabber: John cukras
Email: riffreaper@yahoo.com

Tuning: Normal

Intro:
E-------
B-------
G-------
D--5----
A--3---5
E------3

Riff 1: 1st part               2nd part
E-------------------------------------------------------------
B-------------------------------------------------------------
G-------------------------------------------------------------
D-22222------------------222222-7---7--22222-------22222------
A-22222-7-5-7------------222222-5-7-5--22222-7-5-7-22222-7-5-7
E-00000-5-3-5 x's 8------000000---5----00000-5-3-5-00000-5-3-5 x's 2

Riff 2:
E-----------------------------------------------------------
B-----------------------------------------------------------
G-----------------------------------------------------------
D-4---4---7---7---5-5----7-7--------4---4---7---7---5-5----2
A-2-4-2---5-7-5---3-3-5--5-5-7------2-4-2---5-7-5---3-3-5--2
E---2-------5---------3------5--------2-------5---------3--0

Riff 1: 1st part x's 4, 2nd part x's 2

Riff 2
[ Tab from: http://www.guitartabs.cc/tabs/m/misfits/i_got_a_right_tab.html ]
Riff 3: 
E-------------------------------------------------------------------------
B-------------------------------------------------------------------------
G-------------------------------------------------------------------------
D-22222-7-5-7-22222-7-5-7-22222-7-5-1111111111-10-9-10--------222222------
A-22222-5-3-5-22222-5-3-5-22222-5-3-9 9 9 9 9--8--7-8---------222222-7-5-7
E-00000-------00000-------00000--------------------   x's 2---000000-5-3-5

Riff 2

Riff 1: 2nd part x's 2

Riff 2 x's 2

Outro:
E-----------------------------
B-----------------------------
G-----------------------------
D-4-5------------5--4--------2
A-2-3 x's 3------3--2--5--4--2
E----------------------3--2--0

Solo:
E-----------------------------------------------------------------------------------------------------------
B-----------------------------------------------------------------------------------------------------------
G--------------------------------------------------------17^^^--15^^^--12^^^--15^^^--17^^^--15^^^--12^^^--8^
D---------------------------------------15-14-12-14-15------------------------------------------------------
A-5-7-9-9-7-5--7-9-11-11-9-7--11-13-15----------------------------------------------------------------------
E-----------------------------------------------------------------------------------------------------------
Comments