Misfits - I Got A Right Chords & Tabs

 

I Got A Right Chords & Tabs

Misfits Chords & Tabs

Version: 1 Type: Bass Tab 0 ratings
1 star 2 stars 3 stars 4 stars 5 stars
comments

I Got A Right Bass Tab

   
Artist: Misfits
Song: I Got A Right (Iggy Pop)
Bassist: Jerry Only
Tabbed by: jacob


G ----------------------------------------|
D ----------------------------------------|
A ----------------------------------------|
E --8~~~---------------3~~~---------------|

  Pre-Verse repeat 2x
G --------------------------------------------------|
D --------------------------------------------------|
A --------------------------------------------------|
E 0000-5-3-5--0000-5-3-5--0000-5-3-5--0000-5-3-5----|

  Verse  repeat 2x
G -------------------------------------------|
D -------------------------------------------|
A ----------5---5----------------------------|
E 00000000----5----0000--5-3-5--0000--5-3-5--|

  Chorus 1
G ----------------------------------------------------------------|
D ----------------------------------------------------------------|
A ----------------------------------------------------------------|
E 7-2-7---10-5-10---8-8-3--10-10-5--7-2-7---10-5-10---8-8-3----5~-|

Pre-Verse (once)

Verse repeat 2x

Chorus 1 (once)

  Chorus 2  Repeat 2x
G --------------------------------------------------------------|
D --------------------------------------------------------------|
A 7-5-7-77777777-7-5-7-77777777-7-5-101010101010-9-7-9-77777777-|
E --------------------------------------------------------------|

[ Tab from: http://www.guitartabs.cc/tabs/m/misfits/i_got_a_right_btab.html ]
  Chorus 1 [during guitar solo]
G ----------------------------------------------------------------|
D ----------------------------------------------------------------|
A ----------------------------------------------------------------|
E 7-2-7---10-5-10---8-8-3--10-10-5--7-2-7---10-5-10---8-8-3----5~-|

Bridge [After the guitar solo> repeat 2x]
G -------------------------------------------|
D -------------------------------------------|
A ------------5---5--------------------------|
E -000-00000----5----0000-5-3-5-0000-5-3-5---|

Chorus 1
G --------------------------------------------------------------------|
D --------------------------------------------------------------------|
A --------------------------------------------------------------------|
E 7-2-7---10-5-10---8-8-3--10-10-5--7-2-7---10-5-10---8-8-3---10-10-5-|


G --------------------------------------------------------------------|
D --------------------------------------------------------------------|
A --------------------------------------------------------------------|
E 7-2-7---10-5-10---8-8-3--10-10-5--7-2-7---10-5-10---8-8-3~~~~-------|

  Ending Riff
G --------------------------------------------------------------------|
D ----------------------------------------------------------^---------|
A ----------------------------------------------------------7--7/~~~--|
E -77777777-8-77777777-8-77777777-7-8---7---3---2-3---0~~~~-----------|
Comments