Misfits - Hybrid Moments Chords & Tabs

 

Hybrid Moments Chords & Tabs

Misfits Chords & Tabs

Version: 7 Type: Bass Tab

Hybrid Moments Bass Tab

Couldn't find a proper tab that was 100% correct so here's how you play this classic Misfits tune:



(x2)
G |------------------------------------|
D |------------------------------------|
A |---------99999999-----6666-55555555-|
E |55555555----------3333--------------|

(x1)
G |----------------------------------------------------------------|
D |----------------------------------------------------------------|
A |9-99999-7-77777-7-77777-5-55555---------7-77777-5-55555-7-77777-|
E |--------------------------------5-55555-------------------------|
[ Tab from: http://www.guitartabs.cc/tabs/m/misfits/hybrid_moments_btab_ver_7.html ]
(x2)
G |------------------------------------|
D |------------------------------------|
A |---------99999999-----6666-55555555-|
E |55555555----------3333--------------|

(x1)
G |----------------------------------------------------------------|
D |----------------------------------------------------------------|
A |9-99999-7-77777-7-77777-5-55555---------7-77777-5-55555-7-77777-|
E |--------------------------------5-55555-------------------------|

(x2)
G |------------------------------------|
D |------------------------------------|
A |---------99999999-----6666-55555555-|
E |55555555----------3333--------------|

(x1)
G |---------------------------------------------|
D |---------------------------------------------|
A |---------99999999--------------------------5~|
E |55555555----------3-3-3-3-3-3--5-5-5-5-5-5---|

Pretty Simple...enjoy!