Misfits - Horror Hotel Chords & Tabs

 

Horror Hotel Chords & Tabs

Misfits Chords & Tabs

Version: 1 Type: Bass Tab 0 ratings
1 star 2 stars 3 stars 4 stars 5 stars
comments

Horror Hotel Bass Tab

   
Misfits - Horror Hotel

Yet another easy to tab yet ultimately rocking song.  Easy to play, so there
should be no problem playing this or ANY OTHER misfits song.

If you need a tab transcribed, don't hesitate to email me at:

ScorpDave@aol.com

Standard E A D G Tuning

/ = Slide Down

(Like most misfits song, the bass follows the guitar, but in the intro i'm
uncertain as to whether Jerry plays with Doyle, so i included it anyways)

Intro (0:00)
G--------|       
D--------|      
A0/2-0/2-| x1 
E--------|

Verse (0:02)
G--------|
D----2222|
A2222----| x4
E--------|

Pre-Chorus (0:11)
G----------|
D----------|
A0000-2222-| x1
E----------|

Pre-Chorus 2 (0:13)
G----------|
D----------|
A----------| x1
E-3--3--3--|

Verse (0:17)
G--------|
D----2222|
A2222----| x4
E--------|
[ Tab from: http://www.guitartabs.cc/tabs/m/misfits/horror_hotel_btab.html ]
Pre-Chorus (0:26)
G----------|
D----------|
A0000-2222-| x1
E----------|

Pre-Chorus 2 (0:28)
G----------|
D----------|
A----------| x1
E-3--3--3--|

Chorus (0:33)
G--------|
D--------|
A2222----| x3
E----3-5-|

Chorus (0:39)
G-----------|
D---------2-|
A2222-------| x1
E----3-5----|

Verse (0:43)
G--------|
D----2222|
A2222----| x4
E--------|

Pre-Chorus (0:52)
G----------|
D----------|
A0000-2222-| x1
E----------|

Pre-Chorus 2 (0:54)
G----------|
D----------|
A----------| x1
E-3--3--3--|

Chorus (0:58)
G--------|
D--------|
A2222----| x3
E----3-5-|

Chorus (1:05)
G-----------------|
D---------22222222|
A2222-------------| x1
E----3-5----------|

Chorus (1:09)
G--------|
D--------|
A2222----| x3
E----3-5-|

Chorus (1:15)
G-----------|
D---------2-|
A2222-------| x1
E----3-5----|

(Let last note ring for about 6 seconds then sudden mute it)
Comments