Misfits - Horror Business Chords & Tabs

 

Horror Business Chords & Tabs

Misfits Chords & Tabs

Version: 1 Type: Tab 0 ratings
1 star 2 stars 3 stars 4 stars 5 stars
comments

Horror Business Tab

Horror Business

Transcribed by: Look_Upon_Me@yahoo.com             

E  :----------------|----------------|----------------|----------------|
B  :----------------|----------------|----------------|----------------|
G  :----------------|----------------|----------------|----------------|
D  :--------8---7---|5-5-8-5-5-5-8-5-|5-5-8-5-8-8-8-8-|5-5-8-5-5-5-8-5-|
A  :--------8---7---|5-5-8-5-5-5-8-5-|5-5-8-5-8-8-8-8-|5-5-8-5-5-5-8-5-|
E  :--------6---5---|3-3-6-3-3-3-6-3-|3-3-6-3-6-6-6-6-|3-3-6-3-3-3-6-3-|

   NOTE: I Tabbed The Solo Wrong, But It's Close                                                                    


E  :----------------|----------------|----------------|----------------|
B  :----------------|----------------|----------------|----------------|
G  :----------------|----------------|----------------|----------------|
D  :5-5-8-5-8-8-8-8-|5-5-8-5-5-5-8-5-|5-5-8-5-8-8-8-8-|5-5-8-5-5-5-8-5-|
A  :5-5-8-5-8-8-8-8-|5-5-8-5-5-5-8-5-|5-5-8-5-8-8-8-8-|5-5-8-5-5-5-8-5-|
E  :3-3-6-3-6-6-6-6-|3-3-6-3-3-3-6-3-|3-3-6-3-6-6-6-6-|3-3-6-3-3-3-6-3-|

                                                                       


E  :----------------|----------------|----------------|----------------|
B  :----------------|----------------|----------------|----------------|
G  :----------------|----------------|----------------|----------------|
D  :5-5-8-5-8-8-8-8-|5-5-8-5-5-5-8-5-|5-5-8-5-8-8-8-8-|5-5-8-5-5-5-8-5-|
A  :5-5-8-5-8-8-8-8-|5-5-8-5-5-5-8-5-|5-5-8-5-8-8-8-8-|5-5-8-5-5-5-8-5-|
E  :3-3-6-3-6-6-6-6-|3-3-6-3-3-3-6-3-|3-3-6-3-6-6-6-6-|3-3-6-3-3-3-6-3-|

                                                                       


E  :----------------|----------------|----------------|----------------|
B  :----------------|----------------|----------------|----------------|
G  :----------------|----------------|----------------|----------------|
D  :5-5-8-5-8-8-8-8-|8-8-8-8-8-8-8-8-|8-8-8-8-8-8-8-8-|7-7-7-7-7-7-7-7-|
A  :5-5-8-5-8-8-8-8-|8-8-8-8-8-8-8-8-|8-8-8-8-8-8-8-8-|7-7-7-7-7-7-7-7-|
E  :3-3-6-3-6-6-6-6-|6-6-6-6-6-6-6-6-|6-6-6-6-6-6-6-6-|5-5-5-5-5-5-5-5-|

                                                                       


E  :--------------------|----------------|----------------|
B  :--------------------|----------------|----------------|
G  :--------------------|----------------|----------------|
D  :10-10-10-10-8---7---|5-5-8-5-5-5-8-5-|5-5-8-5-8-8-8-8-|
A  :10-10-10-10-8---7---|5-5-8-5-5-5-8-5-|5-5-8-5-8-8-8-8-|
E  :-8--8--8--8-6---5---|3-3-6-3-3-3-6-3-|3-3-6-3-6-6-6-6-|

                                                          


E  :----------------|----------------|----------------|----------------|
B  :----------------|----------------|----------------|----------------|
G  :----------------|----------------|----------------|----------------|
D  :5-5-8-5-5-5-8-5-|5-5-8-5-8-8-8-8-|5-5-8-5-5-5-8-5-|5-5-8-5-8-8-8-8-|
A  :5-5-8-5-5-5-8-5-|5-5-8-5-8-8-8-8-|5-5-8-5-5-5-8-5-|5-5-8-5-8-8-8-8-|
E  :3-3-6-3-3-3-6-3-|3-3-6-3-6-6-6-6-|3-3-6-3-3-3-6-3-|3-3-6-3-6-6-6-6-|

                                                                       


E  :----------------|----------------|----------------|----------------|
B  :----------------|----------------|----------------|----------------|
G  :----------------|----------------|----------------|----------------|
D  :5-5-8-5-5-5-8-5-|5-5-8-5-8-8-8-8-|5-5-8-5-5-5-8-5-|5-5-8-5-8-8-8-8-|
A  :5-5-8-5-5-5-8-5-|5-5-8-5-8-8-8-8-|5-5-8-5-5-5-8-5-|5-5-8-5-8-8-8-8-|
E  :3-3-6-3-3-3-6-3-|3-3-6-3-6-6-6-6-|3-3-6-3-3-3-6-3-|3-3-6-3-6-6-6-6-|

                                                                       


E  :----------------|----------------|----------------|----------------|
B  :----------------|----------------|----------------|----------------|
G  :----------------|----------------|----------------|----------------|
D  :5-5-8-5-5-5-8-5-|5-5-8-5-8-8-8-8-|8-8-8-8-8-8-8-8-|8-8-8-8-8-8-8-8-|
A  :5-5-8-5-5-5-8-5-|5-5-8-5-8-8-8-8-|8-8-8-8-8-8-8-8-|8-8-8-8-8-8-8-8-|
E  :3-3-6-3-3-3-6-3-|3-3-6-3-6-6-6-6-|6-6-6-6-6-6-6-6-|6-6-6-6-6-6-6-6-|

                                                                       


E  :----------------|------------------------|----------------------|
B  :----------------|------------------------|----------------------|
G  :----------------|------------------------|10---10-10---10-10-10-|
D  :7-7-7-7-7-7-7-7-|10-10-10-10-10-10-10-10-|10---10-10---10-10-10-|
A  :7-7-7-7-7-7-7-7-|10-10-10-10-10-10-10-10-|-8----8--8----8--8--8-|
E  :5-5-5-5-5-5-5-5-|-8--8--8--8--8--8--8--8-|----------------------|

                                                                    


E  :----------------------|----------------|----------------------|
B  :----------------------|----------------|----------------------|
G  :----------------------|----------------|----------------------|
D  :10---10-10---10-10-10-|8---8-8---8-8-8-|10---10-10---10-10-10-|
A  :10---10-10---10-10-10-|8---8-8---8-8-8-|10---10-10---10-10-10-|
E  :-8----8--8----8--8--8-|6---6-6---6-6-6-|-8----8--8----8--8--8-|

                                                                  


E  :----------------------|----------------------|----------------|
B  :----------------------|----------------------|----------------|
G  :10---10-10---10-10-10-|----------------------|----------------|
D  :10---10-10---10-10-10-|10---10-10---10-10-10-|8---8-8---8-8-8-|
A  :-8----8--8----8--8--8-|10---10-10---10-10-10-|8---8-8---8-8-8-|
E  :----------------------|-8----8--8----8--8--8-|6---6-6---6-6-6-|

                                                                  


E  :----------------------|----------------------|----------------------|
B  :----------------------|----------------------|----------------------|
G  :----------------------|10---10-10---10-10-10-|----------------------|
D  :10---10-10---10-10-10-|10---10-10---10-10-10-|10---10-10---10-10-10-|
A  :10---10-10---10-10-10-|-8----8--8----8--8--8-|10---10-10---10-10-10-|
E  :-8----8--8----8--8--8-|----------------------|-8----8--8----8--8--8-|

                                                                        


E  :----------------|----------------------|----------------------|
B  :----------------|----------------------|----------------------|
G  :----------------|----------------------|10---10-10---10-10-10-|
D  :8---8-8---8-8-8-|10---10-10---10-10-10-|10---10-10---10-10-10-|
A  :8---8-8---8-8-8-|10---10-10---10-10-10-|-8----8--8----8--8--8-|
E  :6---6-6---6-6-6-|-8----8--8----8--8--8-|----------------------|

                                                                  

E  :----------------------|----------------|-------------------|
B  :----------------------|----------------|-------------------|
G  :----------------------|----------------|-------------------|
D  :10---10-10---10-10-10-|8---8-8---8-8-8-|10---10-10-8---7---|
A  :10---10-10---10-10-10-|8---8-8---8-8-8-|10---10-10-8---7---|
E  :-8----8--8----8--8--8-|6---6-6---6-6-6-|-8----8--8-6---5---|

                                                               


E  :----------------|----------------|----------------|----------------|
B  :----------------|----------------|----------------|----------------|
G  :----------------|----------------|----------------|----------------|
D  :5-5-8-5-5-5-8-5-|5-5-8-5-8-8-8-8-|5-5-8-5-5-5-8-5-|5-5-8-5-8-8-8-8-|
A  :5-5-8-5-5-5-8-5-|5-5-8-5-8-8-8-8-|5-5-8-5-5-5-8-5-|5-5-8-5-8-8-8-8-|
E  :3-3-6-3-3-3-6-3-|3-3-6-3-6-6-6-6-|3-3-6-3-3-3-6-3-|3-3-6-3-6-6-6-6-|

                                                                       


E  :----------------|----------------|----------------|----------------|
B  :----------------|----------------|----------------|----------------|
G  :----------------|----------------|----------------|----------------|
D  :5-5-8-5-5-5-8-5-|5-5-8-5-8-8-8-8-|5-5-8-5-5-5-8-5-|5-5-8-5-8-8-8-8-|
A  :5-5-8-5-5-5-8-5-|5-5-8-5-8-8-8-8-|5-5-8-5-5-5-8-5-|5-5-8-5-8-8-8-8-|
E  :3-3-6-3-3-3-6-3-|3-3-6-3-6-6-6-6-|3-3-6-3-3-3-6-3-|3-3-6-3-6-6-6-6-|

                                                                       


E  :----------------|----------------|----------------|----------------|
B  :----------------|----------------|----------------|----------------|
G  :----------------|----------------|----------------|----------------|
D  :5-5-8-5-5-5-8-5-|5-5-8-5-8-8-8-8-|5-5-8-5-5-5-8-5-|5-5-8-5-8-8-8-8-|
A  :5-5-8-5-5-5-8-5-|5-5-8-5-8-8-8-8-|5-5-8-5-5-5-8-5-|5-5-8-5-8-8-8-8-|
E  :3-3-6-3-3-3-6-3-|3-3-6-3-6-6-6-6-|3-3-6-3-3-3-6-3-|3-3-6-3-6-6-6-6-|

                                                                       


E  :----------------|----------------|----------------|
B  :----------------|----------------|----------------|
G  :----------------|----------------|----------------|
D  :8-8-8-8-8-8-8-8-|8-8-8-8-8-8-8-8-|7-7-7-7-7-7-7-7-|
A  :8-8-8-8-8-8-8-8-|8-8-8-8-8-8-8-8-|7-7-7-7-7-7-7-7-|
E  :6-6-6-6-6-6-6-6-|6-6-6-6-6-6-6-6-|5-5-5-5-5-5-5-5-|

                                                      


E  :--------------------|----------------|----------------|
B  :--------------------|----------------|----------------|
G  :--------------------|----------------|----------------|
D  :10-10-10-10-8---7---|5-5-8-5-5-5-8-5-|5-5-8-5-8-8-8-8-|
A  :10-10-10-10-8---7---|5-5-8-5-5-5-8-5-|5-5-8-5-8-8-8-8-|
E  :-8--8--8--8-6---5---|3-3-6-3-3-3-6-3-|3-3-6-3-6-6-6-6-|

                                                          


E  :----------------|----------------|----------------|----------------|
B  :----------------|----------------|----------------|----------------|
G  :----------------|----------------|----------------|----------------|
D  :5-5-8-5-5-5-8-5-|5-5-8-5-8-8-8-8-|5-5-8-5-5-5-8-5-|5-5-8-5-8-8-8-8-|
A  :5-5-8-5-5-5-8-5-|5-5-8-5-8-8-8-8-|5-5-8-5-5-5-8-5-|5-5-8-5-8-8-8-8-|
E  :3-3-6-3-3-3-6-3-|3-3-6-3-6-6-6-6-|3-3-6-3-3-3-6-3-|3-3-6-3-6-6-6-6-|

                                                                       


E  :----------------|----------------|----------------|----------------|
B  :----------------|----------------|----------------|----------------|
G  :----------------|----------------|----------------|----------------|
D  :5-5-8-5-5-5-8-5-|5-5-8-5-8-8-8-8-|5-5-8-5-5-5-8-5-|5-5-8-5-8-8-8-8-|
A  :5-5-8-5-5-5-8-5-|5-5-8-5-8-8-8-8-|5-5-8-5-5-5-8-5-|5-5-8-5-8-8-8-8-|
E  :3-3-6-3-3-3-6-3-|3-3-6-3-6-6-6-6-|3-3-6-3-3-3-6-3-|3-3-6-3-6-6-6-6-|

                                                                       


E  :----------------|----------------|----------------|----------------|
B  :----------------|----------------|----------------|----------------|
G  :----------------|----------------|----------------|----------------|
D  :5-5-8-5-5-5-8-5-|5-5-8-5-8-8-8-8-|8-8-8-8-8-8-8-8-|8-8-8-8-8-8-8-8-|
A  :5-5-8-5-5-5-8-5-|5-5-8-5-8-8-8-8-|8-8-8-8-8-8-8-8-|8-8-8-8-8-8-8-8-|
E  :3-3-6-3-3-3-6-3-|3-3-6-3-6-6-6-6-|6-6-6-6-6-6-6-6-|6-6-6-6-6-6-6-6-|

                                                                       

E  :----------------|------------------------|----------------------|
B  :----------------|------------------------|----------------------|
G  :----------------|------------------------|10---10-10---10-10-10-|
D  :7-7-7-7-7-7-7-7-|10-10-10-10-10-10-10-10-|10---10-10---10-10-10-|
A  :7-7-7-7-7-7-7-7-|10-10-10-10-10-10-10-10-|-8----8--8----8--8--8-|
E  :5-5-5-5-5-5-5-5-|-8--8--8--8--8--8--8--8-|----------------------|

                                                                    


E  :----------------------|----------------|----------------------|
B  :----------------------|----------------|----------------------|
G  :----------------------|----------------|----------------------|
D  :10---10-10---10-10-10-|8---8-8---8-8-8-|10---10-10---10-10-10-|
A  :10---10-10---10-10-10-|8---8-8---8-8-8-|10---10-10---10-10-10-|
E  :-8----8--8----8--8--8-|6---6-6---6-6-6-|-8----8--8----8--8--8-|

                                                                  


E  :----------------------|----------------------|----------------|
B  :----------------------|----------------------|----------------|
G  :10---10-10---10-10-10-|----------------------|----------------|
D  :10---10-10---10-10-10-|10---10-10---10-10-10-|8---8-8---8-8-8-|
A  :-8----8--8----8--8--8-|10---10-10---10-10-10-|8---8-8---8-8-8-|
E  :----------------------|-8----8--8----8--8--8-|6---6-6---6-6-6-|

                                                                  
[ Tab from: http://www.guitartabs.cc/tabs/m/misfits/horror_business_tab.html ]
E  :----------------------|----------------------|----------------------|
B  :----------------------|----------------------|----------------------|
G  :----------------------|10---10-10---10-10-10-|----------------------|
D  :10---10-10---10-10-10-|10---10-10---10-10-10-|10---10-10---10-10-10-|
A  :10---10-10---10-10-10-|-8----8--8----8--8--8-|10---10-10---10-10-10-|
E  :-8----8--8----8--8--8-|----------------------|-8----8--8----8--8--8-|

                                                                        


E  :----------------|----------------------|----------------------|
B  :----------------|----------------------|----------------------|
G  :----------------|----------------------|10---10-10---10-10-10-|
D  :8---8-8---8-8-8-|10---10-10---10-10-10-|10---10-10---10-10-10-|
A  :8---8-8---8-8-8-|10---10-10---10-10-10-|-8----8--8----8--8--8-|
E  :6---6-6---6-6-6-|-8----8--8----8--8--8-|----------------------|

                                                                  


E  :----------------------|----------------|----------------------|
B  :----------------------|----------------|----------------------|
G  :----------------------|----------------|----------------------|
D  :10---10-10---10-10-10-|8---8-8---8-8-8-|10---10-10---10-10-10-|
A  :10---10-10---10-10-10-|8---8-8---8-8-8-|10---10-10---10-10-10-|
E  :-8----8--8----8--8--8-|6---6-6---6-6-6-|-8----8--8----8--8--8-|

                                                                  


E  :----------------------|----------------------|--------------------|
B  :----------------------|----------------------|--------------------|
G  :10---10-10---10-10-10-|----------------------|--------------------|
D  :10---10-10---10-10-10-|10---10-10---10-10-10-|-8---8-8----8--8--8-|
A  :-8----8--8----8--8--8-|10---10-10---10-10-10-|-8---8-8----8--8--8-|
E  :----------------------|-8----8--8----8--8--8-|-6---6-6----6--6--6-|
  
    Guitar Two...OverDubbed Solo                                                       
E  :13--------------------|13--------------------|13------------------|
B  :---8--6--8----6--6--6-|---8--6--8----8--8--8-|---8-6-8---11-11-11-|
G  :----------------------|----------------------|--------------------|
D  :----------------------|----------------------|--------------------|
A  :----------------------|----------------------|--------------------|
E  :----------------------|----------------------|--------------------|

=============================================================================

E  :-------------------------------------|----------------------|
B  :-------------------------------------|----------------------|
G  :-------------------------------------|10---10-10---10-10-10-|
D  :10---10-10----10------10------10-----|10---10-10---10-10-10-|
A  :10---10-10----10------10------10-----|-8----8--8----8--8--8-|
E  :-8----8--8-----8-------8-------8-----|----------------------|
                        
E  :13-----------------------------------|13--------------------|
B  :---8--6--8---(11)(13)(11)(13)(11)(13)|---8--6--8----6--6--6-|
G  :-------------------------------------|----------------------|
D  :-------------------------------------|----------------------|
A  :-------------------------------------|----------------------|
E  :-------------------------------------|----------------------|

=============================================================================

E  :----------------------|--------------------|
B  :----------------------|--------------------|
G  :----------------------|--------------------|
D  :10---10-10---10-10-10-|-8---8-8----8--8--8-|
A  :10---10-10---10-10-10-|-8---8-8----8--8--8-|
E  :-8----8--8----8--8--8-|-6---6-6----6--6--6-|

E  :13--------------------|13------------------|
B  :---8--6--8----8--8--8-|---8-6-8---11-11-11-|
G  :----------------------|--------------------|
D  :----------------------|--------------------|
A  :----------------------|--------------------|
E  :----------------------|--------------------|

=============================================================================

E  :-------------------------------------|----------------------|
B  :-------------------------------------|----------------------|
G  :-------------------------------------|10---10-10---10-10-10-|
D  :10---10-10----10------10------10-----|10---10-10---10-10-10-|
A  :10---10-10----10------10------10-----|-8----8--8----8--8--8-|
E  :-8----8--8-----8-------8-------8-----|----------------------|
                     
E  :13-----------------------------------|13--------------------|
B  :---8--6--8---(11)(13)(11)(13)(11)(13)|---8--6--8----6--6--6-|
G  :-------------------------------------|----------------------|
D  :-------------------------------------|----------------------|
A  :-------------------------------------|----------------------|
E  :-------------------------------------|----------------------|

=============================================================================

E  :----------------------|--------------------|
B  :----------------------|--------------------|
G  :----------------------|--------------------|
D  :10---10-10---10-10-10-|-8---8-8----8--8--8-|
A  :10---10-10---10-10-10-|-8---8-8----8--8--8-|
E  :-8----8--8----8--8--8-|-6---6-6----6--6--6-|

E  :13--------------------|13------------------|
B  :---8--6--8----8--8--8-|---8-6-8---11-11-11-|
G  :----------------------|--------------------|
D  :----------------------|--------------------|
A  :----------------------|--------------------|
E  :----------------------|--------------------|

=============================================================================

E  :-------------------------------------|----------------------|
B  :-------------------------------------|----------------------|
G  :-------------------------------------|10---10-10---10-10-10-|
D  :10---10-10----10------10------10-----|10---10-10---10-10-10-|
A  :10---10-10----10------10------10-----|-8----8--8----8--8--8-|
E  :-8----8--8-----8-------8-------8-----|----------------------|
                       
E  :13-----------------------------------|13--------------------|
B  :---8--6--8---(11)(13)(11)(13)(11)(13)|---8--6--8----6--6--6-|
G  :-------------------------------------|----------------------|
D  :-------------------------------------|----------------------|
A  :-------------------------------------|----------------------|
E  :-------------------------------------|----------------------|

=============================================================================

E  :----------------------|--------------------|----------------------|
B  :----------------------|--------------------|----------------------|
G  :----------------------|--------------------|----------------------|
D  :10---10-10---10-10-10-|-8---8-8----8--8--8-|10---10-10---10-10-10-|
A  :10---10-10---10-10-10-|-8---8-8----8--8--8-|10---10-10---10-10-10-|
E  :-8----8--8----8--8--8-|-6---6-6----6--6--6-|-8----8--8----8--8--8-|

                                       End On Pickslide   / / / / / / 
E  :13--------------------|13------------------|13--------------------|
B  :---8--6--8----8--8--8-|---8-6-8---11-11-11-|---8--6--8------------|
G  :----------------------|--------------------|----------------------|
D  :----------------------|--------------------|----------------------|
A  :----------------------|--------------------|----------------------|
E  :----------------------|--------------------|----------------------|

=============================================================================

E  :----------------------|----------------------|----------------|
B  :----------------------|----------------------|----------------|
G  :10---10-10---10-10-10-|----------------------|----------------|
D  :10---10-10---10-10-10-|10---10-10---10-10-10-|8---8-8---8-8-8-|
A  :-8----8--8----8--8--8-|10---10-10---10-10-10-|8---8-8---8-8-8-|
E  :----------------------|-8----8--8----8--8--8-|6---6-6---6-6-6-|

                                                                  


E  :----------------------|----------------------|----------------------|
B  :----------------------|----------------------|----------------------|
G  :----------------------|10---10-10---10-10-10-|----------------------|
D  :10---10-10---10-10-10-|10---10-10---10-10-10-|10---10-10---10-10-10-|
A  :10---10-10---10-10-10-|-8----8--8----8--8--8-|10---10-10---10-10-10-|
E  :-8----8--8----8--8--8-|----------------------|-8----8--8----8--8--8-|

                                                                        

E  :----------------|----------------------|----------------------|
B  :----------------|----------------------|----------------------|
G  :----------------|----------------------|10---10-10---10-10-10-|
D  :8---8-8---8-8-8-|10---10-10---10-10-10-|10---10-10---10-10-10-|
A  :8---8-8---8-8-8-|10---10-10---10-10-10-|-8----8--8----8--8--8-|
E  :6---6-6---6-6-6-|-8----8--8----8--8--8-|----------------------|

                                                                  


E  :----------------------|----------------|----------------------|
B  :----------------------|----------------|----------------------|
G  :----------------------|----------------|----------------------|
D  :10---10-10---10-10-10-|8---8-8---8-8-8-|10---10-10---10-10-10-|
A  :10---10-10---10-10-10-|8---8-8---8-8-8-|10---10-10---10-10-10-|
E  :-8----8--8----8--8--8-|6---6-6---6-6-6-|-8----8--8----8--8--8-|

                                                                  


E  :----------------------|----------------------|----------------|
B  :----------------------|----------------------|----------------|
G  :10---10-10---10-10-10-|----------------------|----------------|
D  :10---10-10---10-10-10-|10---10-10---10-10-10-|8---8-8---8-8-8-|
A  :-8----8--8----8--8--8-|10---10-10---10-10-10-|8---8-8---8-8-8-|
E  :----------------------|-8----8--8----8--8--8-|6---6-6---6-6-6-|

                                                                  


E  :----------------------|----------------------|----------------------|
B  :----------------------|----------------------|----------------------|
G  :----------------------|10---10-10---10-10-10-|----------------------|
D  :10---10-10---10-10-10-|10---10-10---10-10-10-|10---10-10---10-10-10-|
A  :10---10-10---10-10-10-|-8----8--8----8--8--8-|10---10-10---10-10-10-|
E  :-8----8--8----8--8--8-|----------------------|-8----8--8----8--8--8-|

                                                                        


E  :----------------|----------------------|----------------------|
B  :----------------|----------------------|----------------------|
G  :----------------|----------------------|10---10-10---10-10-10-|
D  :8---8-8---8-8-8-|10---10-10---10-10-10-|10---10-10---10-10-10-|
A  :8---8-8---8-8-8-|10---10-10---10-10-10-|-8----8--8----8--8--8-|
E  :6---6-6---6-6-6-|-8----8--8----8--8--8-|----------------------|

                                                                  


E  :----------------------|----------------|----------------------|
B  :----------------------|----------------|----------------------|
G  :----------------------|----------------|----------------------|
D  :10---10-10---10-10-10-|8---8-8---8-8-8-|10---10-10---10-10-10-|
A  :10---10-10---10-10-10-|8---8-8---8-8-8-|10---10-10---10-10-10-|
E  :-8----8--8----8--8--8-|6---6-6---6-6-6-|-8----8--8----8--8--8-|

                                                                  


E  :----------------------|----------------------|----------------|
B  :----------------------|----------------------|----------------|
G  :10---10-10---10-10-10-|----------------------|----------------|
D  :10---10-10---10-10-10-|10---10-10---10-10-10-|8---8-8---8-8-8-|
A  :-8----8--8----8--8--8-|10---10-10---10-10-10-|8---8-8---8-8-8-|
E  :----------------------|-8----8--8----8--8--8-|6---6-6---6-6-6-|

                                                                  

E  :----------------------|----------------------|----------------------|
B  :----------------------|----------------------|----------------------|
G  :----------------------|10---10-10---10-10-10-|----------------------|
D  :10---10-10---10-10-10-|10---10-10---10-10-10-|10---10-10---10-10-10-|
A  :10---10-10---10-10-10-|-8----8--8----8--8--8-|10---10-10---10-10-10-|
E  :-8----8--8----8--8--8-|----------------------|-8----8--8----8--8--8-|

                                                                        


E  :----------------|----------------------|-----------------|
B  :----------------|----------------------|-----------------|
G  :----------------|----------------------|10---------------|
D  :8---8-8---8-8-8-|10---10-10---10-10-10-|10---------------|
A  :8---8-8---8-8-8-|10---10-10---10-10-10-|-8---------------|
E  :6---6-6---6-6-6-|-8----8--8----8--8--8-|-----------------|

                                                             


E  :----------------|
B  :----------------|
G  :*---------------|
D  :----------------|
A  :----------------|
E  :----------------|

                    
   NOTE: I Tabbed The Solo Wrong...But It's Close

Comments