Misfits - Hollywood Babylon Chords & Tabs

 

Hollywood Babylon Chords & Tabs

Misfits Chords & Tabs

Version: 1 Type: Bass Tab 0 ratings
1 star 2 stars 3 stars 4 stars 5 stars
comments

Hollywood Babylon Bass Tab

Misfits
Hollywood Babylon
Static Age
Transcribed by NuggetChicken (KaRmA)

Main Riff
|---------|
|---------|
|---------|
|-0-0-3-0-|

Interlude
|----------------------------------------------------------|
|----------------------------------------------------------|
|-0--0-0-0-0-1-1-1-1-0-0-0-0-------------------------------|
|----------------------------0-0-3-0-----------------------|
[ Tab from: http://www.guitartabs.cc/tabs/m/misfits/hollywood_babylon_btab.html ]
Chorus
|-----------------------------------------------------------------|
|-----------------------------------------------------------------|
|-----------------------------------------------------------------|
|-0-0-3-0-0-0-3-0-0-0-3-0-0-0-3-0-6-6-6-6-6-6-6-6-3-3-3-3-3-3-3-3-|

Bridge
|----------------------------------------------------------|
|----------------------------------------------------------|
|-------------------------1-1------------------------------|
|-0-0-3-0-0-0-3-0-0-0-3-0----------------------------------|

There ya go. Repeat above as much as necessary.

Later!
Comments