Misfits - Helena Chords & Tabs

 

Helena Chords & Tabs

Misfits Chords & Tabs

Version: 5 Type: Tab 0 ratings
1 star 2 stars 3 stars 4 stars 5 stars
comments

Helena Tab

   
-------------------------------------------------------------------------------
			     Helena - Misfits
-------------------------------------------------------------------------------
Tabbed by:Astrozombie138


Tuning: 1/2 step down

(part 1)
eb|---------------------------------------------------------------------------|
Bb|---------------------------------------------------------------------------|
Gb|---------------------------------------------------------------------------|
Db|--------4-----------------4------------------------------------------------|
Ab|--6-----2-----4-----6-----2-----4----2-4-5---------------------------------|
Eb|--4-----------2-----4-----------2----0-2-3---------------------------------|

(part 2)
eb|---------------------------------------------------------------------------|
Bb|---------------------------------------------------------------------------|
Gb|---------------------------------------------------------------------------|
Db|--------4------------------------------------------------------------------|
Ab|--6-----2-----4-----2-4-5--------------------------------------------------|
Eb|--4-----------2-----0-2-3--------------------------------------------------|

(part 3a)
eb|---------------------------------------------------------------------------|
Bb|---------------------------------------------------------------------------|
Gb|---------------------------------------------------------------------------|
Db|------------4--------------------------------------------------------------|
Ab|--6---------2---------4-----------2-4-5------------------------------------|
Eb|--4-4-4-------2-2-----2-2-2-2-----0-2-3------------------------------------|
(PM)   . .       . .       . . .

(part 3b)
eb|---------------------------------------------------------------------------|
Bb|---------------------------------------------------------------------------|
Gb|---------------------------------------------------------------------------|
Db|------------4--------------------------------------------------------------|
Ab|--6---------2-----------4:-------------------------------------------------|
Eb|--4-4-4-4-----2-2-2-----2:-------------------------------------------------|
(PM)   . . .     . . .
[ Tab from: http://www.guitartabs.cc/tabs/m/misfits/helena_tab_ver_5.html ]
(part 4)
eb|---------------------------------------------------------------------------|
Bb|---------------------------------------------------------------------------|
Gb|---------------------------------------------------------------------------|
Db|-9-9-9-10-10-10-7-7-7-9-9-9-5-5-5-7-7-7-4-4-4-5-5-5-2-2-2-4-4-4------------|
Ab|-7-7-7-8--8--8--5-5-5-7-7-7-3-3-3-5-5-5-2-2-2-3-3-3-0-0-0-2-2-2-5-5-5-7-7-7|
Eb|----------------------------------------------------------------3-3-3-5-5-5|

(part 5)
eb|---------------------------------------------------------------------------|
Bb|---------------------------------------------------------------------------|
Gb|---------------------------------------------------------------------------|
Db|---------------------------------------------------------------------------|
Ab|-----------------------------------------------------10-10-10---10-9-------|
Eb|--7-0-8-0-10-0-8-0-7-0-5-0-7(AH~)-----7-0-8-0-10-0-8-8--8--8----8--7-------|
(PM)   .   .    .   .   .   .              .   .    .                          

(part 6)
eb|---------------------------------------------------------------------------|
Bb|---------------------------------------------------------------------------|
Gb|---------------------------------------------------------------------------|
Db|--9-9-9-9-9-9-9-9-9-9-9-9-7-7-7-7-7-7-7-7-7-7-7-7--------------------------|
Ab|--7-7-7-7-7-7-7-7-7-7-7-7-5-5-5-5-5-5-5-5-5-5-5-5--------------------------|
Eb|---------------------------------------------------------------------------|

(part7)
eb|---------------------------------------------------------------------------|
Bb|---------------------------------------------------------------------------|
Gb|---------------------------------------------------------------------------|
Db|--9--------------12\11--9--7--------------7--5/7---------------------------|
Ab|--7-7-7-7-7-7-7--10\9---7--5-5-5-5-5-5-5--5--3/5---------------------------|
Eb|---------------------------------------------------------------------------|
(PM)   . . . . . .              . . . . . .

(part 8)
eb|---------------------------------------------------------------------------|
Bb|---------------------------------------------------------------------------|
Gb|---------------------------------------------------------------------------|
Db|--4-----------4-------5----------5----------4-----------4------------------|
Ab|--2--2-2-2-2--2--5/7--3-3-3-3-3--3--\--5/7--2--2-2-2-2--2--5-5-7-7----4:---|
Eb|-----------------3/5----------------\--3/5-----------------3-3-5-5----2:---|
(PM)    . . . .            . . . .                . . . .     . . . .

Order:
part 1        1x
part 2        9x
part 3a       3x 
part 3b       1x
part 4        2x
part 5        2x
part 6        2x
part 7        2x
part 5        2x
part 6        2x
part 7        2x
part 4        4x
part 8	      1x
part 1        1x
part 3a       8x
part 3b       1x

| :  Hold chord or note
| AH Artificial Harmonic
| /  slide up
| \  slide down
| h  hammer-on
| p  pull-off
| ~  vibrato
| +  harmonic
| x  Mute note
===============================================================================
Comments