Misfits - Helena Chords & Tabs

 

Helena Chords & Tabs

Misfits Chords & Tabs

Version: 3 Type: Tab 0 ratings
1 star 2 stars 3 stars 4 stars 5 stars
comments

Helena Tab

---------------------------------------------------------------
---------------------------------------------------------------
---------------------------------------------------------------
------3--------------------------------------------------------  play 1 time
-5----1----3---------------------------------------------------
-3---------1---------------------------------------------------


[ Tab from: http://www.guitartabs.cc/tabs/m/misfits/helena_tab_ver_3.html ]
---------------------------------------------------------------
---------------------------------------------------------------
---------------------------------------------------------------
------3--------------------------------------------------------  
-5----1----3----3-3-3------------------------------------------
-3---------1----1-1-1------------------------------------------

listen to the song to see how many times you play this part

that is how to play the begining of Helena the right way...
if you have any questions email me at jdansby1@msn.com
Comments