Misfits - Helena Chords & Tabs

 

Helena Chords & Tabs

Misfits Chords & Tabs

Version: 1 Type: Chords 0 ratings
1 star 2 stars 3 stars 4 stars 5 stars
comments

Helena Chords

normal tuning

Intro 

----------------------------

----------------------------

----------------------------
[ Tab from: http://www.guitartabs.cc/tabs/m/misfits/helena_crd.html ]
----------------------------
                            
---7-7------9-9-------5-5--- 
                             2 times
---5-5------7-7-------3-3---
 




-------------------------------

-------------------------------

-------------------------------

-------------------------------

---7-7-7-7-7------9-9-----5-5--

---5-5-5-5-5------7-7-----3-3--



thats all i know right now.
Comments