Misfits - Hatebreeders Chords & Tabs

 

Hatebreeders Chords & Tabs

Misfits Chords & Tabs

Version: 3 Type: Tab 0 ratings
1 star 2 stars 3 stars 4 stars 5 stars
comments

Hatebreeders Tab

Hate Breeders
Misfits
Walk Among Us

Tuning: standard

Verse 
e|---------------------------------------|
B|---------------------------------------|
G|---------------------------------------|
D|------------------------------88888888-|
A|--99999999-44444444--66666666-66666666-|
E|--77777777-22222222--44444444----------|
[ Tab from: http://www.guitartabs.cc/tabs/m/misfits/hatebreeders_tab_ver_3.html ]
e|----------------------------------------------------|
B|----------------------------------------------------|
G|----------------------------------------------------|
D|--6-6-6-6-6-6-6-6-8-8-8-8-8-8-8-8-------------------|
A|--4-4-4-4-4-4-4-4-6-6-6-6-6-6-6-6-66666666-44444444-|
E|----------------------------------44444444-22222222-|

chorus
e|---------------------------|
B|---------------------------|
G|---------------------------|
D|--------9999---9--9-9------|
A|--9999--7777---7--7-7-9999-|
E|--7777----------------7777-|

solo riff
e|--6-7-7-7-7---|
B|--------------|
G|--------------|
D|--------------|
A|--------------|
E|--------------|

verse        1x
chorus       2x
verse        1x
chorus       4x
verse        1x
chorus       4x
solo riff    9x
verse        1x(second part only)
chorus       4x
verse        1x
chorus       6x

TABBED BY MERICLEPUNK
Comments