Misfits - Hatebreeders Chords & Tabs

 

Hatebreeders Chords & Tabs

Misfits Chords & Tabs

Version: 2 Type: Tab 0 ratings
1 star 2 stars 3 stars 4 stars 5 stars
comments

Hatebreeders Tab

   
-------------------------------------------------------------------------------
			Hate Breeders - Misfits
-------------------------------------------------------------------------------
Tabbed by: Astrozombie138

Tuning: standard
[ Tab from: http://www.guitartabs.cc/tabs/m/misfits/hatebreeders_tab_ver_2.html ]
(verse)(I am not sure if these chords are strum multiple times)
e|-----------------|---------------------------------------------------------|
B|-----------------|---------------------------------------------------------|
G|-----------------|---------------------------------------------------------|
D|--------------8:-|-6-6-6-6-6-6-6-6--8-8-8-8-8-8-8-8------------------------|
A|--9:--4:--6:--6:-|-4-4-4-4-4-4-4-4--6-6-6-6-6-6-6-6---6:--4:---------------|
E|--7:--2:--4:-----|------------------------------------4:--2:---------------|

(chorus)
e|-------------------|
B|-------------------|
G|-------------------|
D|------9:---9--9-9--|
A|--9:--7:---7--7-7--|
E|--7:---------------|

(solo riff)
e|--6-7-7-7-7---|
B|--------------|
G|--------------|
D|--------------|
A|--------------|
E|--------------|



verse        1x
chorus       2x
verse        1x
chorus       4x
verse        1x
chorus       4x
solo riff    9x
verse        1x(second part only)
chorus       4x
verse        1x
chorus       6x

| :  Hold chord
| /  slide up
| \  slide down
| h  hammer-on
| p  pull-off
| ~  vibrato
| +  harmonic
| x  Mute note
===============================================================================
Comments