Misfits - Halloween Chords & Tabs

 

Halloween Chords & Tabs

Misfits Chords & Tabs

Version: 3 Type: Tab 0 ratings
1 star 2 stars 3 stars 4 stars 5 stars
comments

Halloween Tab

   
-------------------------------------------------------------------------------
			     Halloween - Misfits
-------------------------------------------------------------------------------
Tabbed by: Astrozombie138

Tuning: standard

(intro)
e|---------------------------------------------------------------------------|
B|---------------------------------------------------------------------------|
G|---------------------------------------------------------------------------|
D|--2::----------------------------------------------------------------------|
A|--2::--2-2-2-2-2-2-2-2-2-2-2-2-2-2-2-2-2-2-2-2-----------------------------|
E|--0::--0-0-0-0-0-0-0-0-0-0-0-0-0-0-0-0-0-0-0-0-----------------------------|

(verse a)
e|---------------------------------------------------------------------------|
B|---------------------------------------------------------------------------|
G|---------------------------------------------------------------------------|
D|---------------------------------------------------------------------------|
A|--7-7-7-7-7-7-7-7---10-10-10-10-10-10-10-10--3-3-3-3--5-5-5-5--------------|
E|--5-5-5-5-5-5-5-5---8--8--8--8--8--8--8--8---1-1-1-1--3-3-3-3--------------|
[ Tab from: http://www.guitartabs.cc/tabs/m/misfits/halloween_tab_ver_3.html ]
(verse b)
e|---------------------------------------------------------------------------|
B|---------------------------------------------------------------------------|
G|---------------------------------------------------------------------------|
D|---------------------------------------------------------------------------|
A|--7-7-7-7-7-7-7-7-7-7-7-7-7-7-7-7------------------------------------------|
E|--5-5-5-5-5-5-5-5-5-5-5-5-5-5-5-5------------------------------------------|

(interlude)
e|---------------------------------------------------------------------------|
B|---------------------------------------------------------------------------|
G|---------------------------------------------------------------------------|
D|--9-9--10-10--9-9--10-10--9-9--10-10--9-9--10-10---------------------------|
A|--7-7--8--8---7-7--8--8---7-7--8--8---7-7--8--8----------------------------|
E|---------------------------------------------------------------------------|

(chorus)
e|---------------------------------------------------------------------------|
B|---------------------------------------------------------------------------|
G|---------------------------------------------------------------------------|
D|---------------------------------------------------------------------------|
A|--7-7-7-7-7-7-7-7--5-5-5-5-5-5-5-5-----------------------------------------|
E|--5-5-5-5-5-5-5-5--3-3-3-3-3-3-3-3-----------------------------------------|

order:
intro     1x
verse a   2x
verse b   1x
verse a   2x
verse b   1x
interlude 1x
verse b   1x
interlude 1x
chorus    2x
verse a   2x
chorus    4x



| :  Let ring
| /  slide up
| \  slide down
| h  hammer-on
| p  pull-off
| ~  vibrato
| +  harmonic
| x  Mute note
===============================================================================
Comments