Misfits - Halloween Chords & Tabs

 

Halloween Chords & Tabs

Misfits Chords & Tabs

Version: 1 Type: Tab 0 ratings
1 star 2 stars 3 stars 4 stars 5 stars
comments

Halloween Tab

>=strum 8 times   

e|-------------------------------------------------------|
B|-------------------------------------------------------|
G|----5>----------------------5>-------------------------|
D|-7>-5>-3-3-3-3--5-5-5-5--7>-5>-3-3-3-3--5-5-5-5--7>7>7>|
A|-7>-3>-3-3-3-3--5-5-5-5--7>-3>-3-3-3-3--5-5-5-5--7>7>7>|
E|-5>----1-1-1-1--3-3-3-3--5>----1-1-1-1--3-3-3-3--5>5>5>|

  (continued)

e|--------------------------------------------------|
B|--------------------------------------------------|
G|-5>----------------------5>-----------------------|
D|-5>-3-3-3-3--5-5-5-5--7>-5>-3-3-3-3--5-5-5-5--7>7>|
A|-3>-3-3-3-3--5-5-5-5--7>-3>-3-3-3-3--5-5-5-5--7>7>|
E|----1-1-1-1--3-3-3-3--5>----1-1-1-1--3-3-3-3--5>5>|

[ Tab from: http://www.guitartabs.cc/tabs/m/misfits/halloween_tab.html ]
e|--------------------------------------------|
B|--------------------------------------------|
G|--------------------------------------------|
D|2-2--3-3--2-2--3-3--2-2--3-3--2-2--3-3--7>7>|
A|2-2--3-3--2-2--3-3--2-2--3-3--2-2--3-3--7>7>|
E|0-0--1-1--0-0--1-1--0-0--1-1--0-0--1-1--5>5>|


e|------------------------------------------------|
B|------------------------------------------------|
G|------------------------------------------------|
D|2-2--3-3--2-2--3-3--2-2--3-3--2-2--3-3--7>5>7>5>|
A|2-2--3-3--2-2--3-3--2-2--3-3--2-2--3-3--7>5>7>5>|
E|0-0--1-1--0-0--1-1--0-0--1-1--0-0--1-1--5>3>5>3>|


e|--------------------------------------------------------------------|
B|--------------------------------------------------------------------|
G|----5>----------------------5>--------------------------------------|
D|-7>-5>-3-3-3-3--5-5-5-5--7>-5>-3-3-3-3--5-5-5-5--7>5>7>5>7>5>7>5>7>>|
A|-7>-3>-3-3-3-3--5-5-5-5--7>-3>-3-3-3-3--5-5-5-5--7>5>7>5>7>5>7>5>7>>|
E|-5>----1-1-1-1--3-3-3-3--5>----1-1-1-1--3-3-3-3--5>3>5>3>5>3>5>3>5>>|
            
There you go this is probly about 90% correct maybe higher, email
any problems to habitatlogo@aol.com    ((MisFiTs Rock))
Comments