Misfits - Glad To See You Go Chords & Tabs

 

Glad To See You Go Chords & Tabs

Misfits Chords & Tabs

Version: 1 Type: Tab 0 ratings
1 star 2 stars 3 stars 4 stars 5 stars
comments

Glad To See You Go Tab

THE MISFITS

Ramones Cover- Glad to See You Go

Tabbed By Peter J. P.
Radicalhooligan@aol.com


Intro/Verse:
4x
e------------------------------- ---------------------------------------------|
b------------------------------- ---------------------------------------------|
g---7--7--7-7-7----------------- ---------------------------------------------|
d---7--7--7-7-7---7--7--7-7-7--- --5-5-5-5-5-5-5-5-5-5--7-7-7-7-7-7-7-7-7-7---|
a---5--5--5-5-5---7--7--7-7-7--- --5-5-5-5-5-5-5-5-5-5--7-7-7-7-7-7-7-7-7-7---|
e-----------------5--5--5-5-5--- --3-3-3-3-3-3-3-3-3-3--5-5-5-5-5-5-5-5-5-5---|

2x
e------------------------------- ---------------------------------------------|
b------------------------------- ---------------------------------------------|
g---7--7--7-7-7----------------- ---------------------------------------------|
d---7--7--7-7-7---7--7--7-7-7--- --5-5-5-5-5-5-5-5-5-5--7-7-7-7-7-7-7-7-7-7---|
a---5--5--5-5-5---7--7--7-7-7--- --5-5-5-5-5-5-5-5-5-5--7-7-7-7-7-7-7-7-7-7---|
e-----------------5--5--5-5-5--- --3-3-3-3-3-3-3-3-3-3--5-5-5-5-5-5-5-5-5-5---|

[ Tab from: http://www.guitartabs.cc/tabs/m/misfits/glad_to_see_you_go_tab.html ]
Chorus:
3x 3x
e----------------------------- ---------------------------- --------------------------|
b----------------------------- ---------------------------- --------------------------|
g--7-7-7-7-7-7---------------- ---------------------------- --7-7-7-7-7-7-------------|
d--7-7-7-7-7-7--5-5-5-5-5-5--- --7-7-7-7-7-7-7-7-7-7-7-7--- --7-7-7-7-7-7---5-5-5-5-5-|
a--5-5-5-5-5-5--5-5-5-5-5-5--- --7-7-7-7-7-7-7-7-7-7-7-7--- --5-5-5-5-5-5---5-5-5-5-5-|
e---------------3-3-3-3-3-3--- --5-5-5-5-5-5-5-5-5-5-5-5--- ----------------3-3-3-3-3-|


2nd Verse:
2x
e----------------------------------------- ------------------------------------(12--|x)
b------------------------------------(4x)-- -------------------------------------^--|
g-5-5-5-5-5-5-5-5--7-7-7-7-7-7-7-7-----7--- ---5-5-5-5-5-5-5-5-------------------4--|
d-5-5-5-5-5-5-5-5--7-7-7-7-7-7-7-7---7-7--- ---5-5-5-5-5-5-5-5--5-5-5-5-5-5-5-5--4--|
a-3-3-3-3-3-3-3-3--5-5-5-5-5-5-5-5---7-5--- ---3-3-3-3-3-3-3-3--5-5-5-5-5-5-5-5--2--|
e------------------------------------5----- --------------------3-3-3-3-3-3-3-3-----|


2nd Chorus:
3x 3x
e------------------------------ ----- -----------------------------|
b------------------------------ (12x) -----------------------------|
g---7-7-7-7-7-7---------------- --^-- --7-7-7-7-7-7----------------|
d---7-7-7-7-7-7--5-5-5-5-5-5--- --7-- --7-7-7-7-7-7--5-5-5-5-5-5---|
a---5-5-5-5-5-5--5-5-5-5-5-5--- --7-- --5-5-5-5-5-5--5-5-5-5-5-5---|
e----------------3-3-3-3-3-3--- --5-- ---------------3-3-3-3-3-3---|


Outro Chorus:
12x
e------------------------------|
b------------------------------|
g---7-7-7-7-7-7----------------|
d---7-7-7-7-7-7--5-5-5-5-5-5---|
a---5-5-5-5-5-5--5-5-5-5-5-5---|
e----------------3-3-3-3-3-3---|


Song Structure:

1. Intro
2. Chorus (2x)
3. 2nd Verse
4. Verse
5. 2nd Chorus
6. Outro Chorus
Comments