Misfits - Forbidden Zone Chords & Tabs

 

Forbidden Zone Chords & Tabs

Misfits Chords & Tabs

Version: 2 Type: Tab 0 ratings
1 star 2 stars 3 stars 4 stars 5 stars
comments

Forbidden Zone Tab

   
-------------------------------------------------------------------------------
			     The Forbidden Zone - Misfits
-------------------------------------------------------------------------------
Tabbed by: Astrozombie138


Tuning: 1/2 step down

(intro)
eb|--------------------------------------------------------------------------|
Bb|--------------------------------------------------------------------------|
Gb|--------------------------------------------------------------------------|
Db|--------------------------------------------------------------------------|
Ab|-10(8x's)--10-9--7(8x's)--7-5--3(8x's)-----5------------------------------|
Eb|-8---------8--7--5--------5-3--1-------1/2-3-----\------------------------|

(verse)
eb|--------------------------------------------------------------------------|
Bb|--------------------------------------------------------------------------|
Gb|--------------------------------------------------------------------------|
Db|--------------------------------------------------------------------------|
Ab|-10-10-10-10-10-10-10-10-7-7-7-7-7-7-7-7-3-3-3-3-3-3-3-3-5-5-5-5-5-5-5-5--|
Eb|-8--8--8--8--8--8--8--8--5-5-5-5-5-5-5-5-1-1-1-1-1-1-1-1-3-3-3-3-3-3-3-3--|

(pre chorus)
eb|--------------------------------------------------------------------------|
Bb|--------------------------------------------------------------------------|
Gb|--------------------------------------------------------------------------|
Db|--------------------------------------------------------------------------|
Ab|-3-3-3-3-3-3-3-3--5-5-5-5-5-5-5-5-5--5-4-3--3-3-3-3-3-3-3-3---------------|
Eb|-1-1-1-1-1-1-1-1--3-3-3-3-3-3-3-3-3--3-2-1--1-1-1-1-1-1-1-1-3-2-5-4-------|
(PM). . . . . . . .  . . . . . . . . .         . . . . . . . . 
[ Tab from: http://www.guitartabs.cc/tabs/m/misfits/forbidden_zone_tab_ver_2.html ]
(chorus)
eb|--------------------------------------------------------------------------|
Bb|--------------------------------------------------------------------------|
Gb|--------------------------------------------------------------------------|
Db|-7-7-7-7-7-7-7-7----------------------------------------------------------|
Ab|-5-5-5-5-5-5-5-5-5-5-5-5-7-7-7-7------------------------------------------|
Eb|-----------------3-3-3-3-5-5-5-5-/-\--------------------------------------|

(post chorus)
eb|--------------------------------------------------------------------------|
Bb|--------------------------------------------------------------------------|
Gb|--------------------------------------------------------------------------|
Db|--------------------------------------------------------------------------|
Ab|-5-5-5-5-5-5-5-5-7-7-7-7-7-7-7-7------------------------------------------|
Eb|-3-3-3-3-3-3-3-3-5-5-5-5-5-5-5-5------------------------------------------|
(PM). . . . . . . .   . . . . . . .

(chorus 2)
eb|--------------------------------------------------------------------------|
Bb|--------------------------------------------------------------------------|
Gb|--------------------------------------------------------------------------|
Db|--------------------------------------------------------------------------|
Ab|-12(8x's)--12-11--9(8x's)--9-7--5(8x's)------7(8x's)----------------------|
Eb|-10--------10-9---7--------7-5--3--------3/4-5--------/-------------------|


Order:
Intro         1x
Verse 1       3x
Pre Chorus    1x
Chorus        3x
Post Chorus   1x
Chorus 2      1x
Verse 1       3x
Pre Chorus    1x
Chorus        3x
Post Chorus   1x
Chorus        3x
Post Chorus   1x
chorus 2      2x

| /  slide up
| \  slide down
| h  hammer-on
| p  pull-off
| ~  vibrato
| +  harmonic
| x  Mute note
===============================================================================
Comments